  0
SECTION
  2
HEADER
  9
$ACADVER
  1
AC1009
  9
$INSBASE
 10
0.0
 20
0.0
 30
0.0
  9
$EXTMIN
 10
1.000000E+20
 20
1.000000E+20
 30
1.000000E+20
  9
$EXTMAX
 10
-1.000000E+20
 20
-1.000000E+20
 30
-1.000000E+20
  9
$LIMMIN
 10
0.0
 20
0.0
  9
$LIMMAX
 10
0.0
 20
0.0
  9
$ORTHOMODE
 70
     0
  9
$REGENMODE
 70
     1
  9
$FILLMODE
 70
     1
  9
$QTEXTMODE
 70
     0
  9
$MIRRTEXT
 70
     1
  9
$DRAGMODE
 70
     2
  9
$LTSCALE
 40
1.0
  9
$OSMODE
 70
     0
  9
$ATTMODE
 70
     1
  9
$TEXTSIZE
 40
0.2
  9
$TRACEWID
 40
0.05
  9
$TEXTSTYLE
  7
STANDARD
  9
$CLAYER
  8
DEFAULT
  9
$CELTYPE
  6
BYLAYER
  9
$CECOLOR
 62
   256
  9
$DIMSCALE
 40
1.0
  9
$DIMASZ
 40
1.0
  9
$DIMEXO
 40
0.25
  9
$DIMDLI
 40
0.38
  9
$DIMRND
 40
0.0
  9
$DIMDLE
 40
0.0
  9
$DIMEXE
 40
0.5
  9
$DIMTP
 40
0.0
  9
$DIMTM
 40
0.0
  9
$DIMTXT
 40
1.0
  9
$DIMCEN
 40
0.09
  9
$DIMTSZ
 40
0.0
  9
$DIMTOL
 70
     0
  9
$DIMLIM
 70
     0
  9
$DIMTIH
 70
     0
  9
$DIMTOH
 70
     0
  9
$DIMSE1
 70
     0
  9
$DIMSE2
 70
     0
  9
$DIMTAD
 70
     1
  9
$DIMZIN
 70
     0
  9
$DIMBLK
  1

  9
$DIMASO
 70
     1
  9
$DIMSHO
 70
     1
  9
$DIMPOST
  1

  9
$DIMAPOST
  1

  9
$DIMALT
 70
     0
  9
$DIMALTD
 70
     2
  9
$DIMALTF
 40
25.4
  9
$DIMLFAC
 40
1.0
  9
$DIMTOFL
 70
     0
  9
$DIMTVP
 40
0.0
  9
$DIMTIX
 70
     0
  9
$DIMSOXD
 70
     0
  9
$DIMSAH
 70
     0
  9
$DIMBLK1
  1

  9
$DIMBLK2
  1

  9
$DIMSTYLE
  2
STANDARD
  9
$DIMCLRD
 70
     0
  9
$DIMCLRE
 70
     0
  9
$DIMCLRT
 70
     0
  9
$DIMTFAC
 40
1.0
  9
$DIMGAP
 40
0.333333
  9
$LUNITS
 70
     2
  9
$LUPREC
 70
     4
  9
$AXISMODE
 70
     0
  9
$AXISUNIT
 10
0.0
 20
0.0
  9
$SKETCHINC
 40
0.1
  9
$FILLETRAD
 40
0.0
  9
$AUNITS
 70
     0
  9
$AUPREC
 70
     0
  9
$MENU
  1
acad
  9
$ELEVATION
 40
0.0
  9
$PELEVATION
 40
0.0
  9
$THICKNESS
 40
0.0
  9
$LIMCHECK
 70
     0
  9
$BLIPMODE
 70
     1
  9
$CHAMFERA
 40
0.0
  9
$CHAMFERB
 40
0.0
  9
$SKPOLY
 70
     0
  9
$TDCREATE
 40
0.000000000
  9
$TDUPDATE
 40
0.000000000
  9
$TDINDWG
 40
0.0000000000
  9
$TDUSRTIMER
 40
0.0000000000
  9
$USRTIMER
 70
     1
  9
$ANGBASE
 50
0.0
  9
$ANGDIR
 70
     0
  9
$PDMODE
 70
     0
  9
$PDSIZE
 40
0.0
  9
$PLINEWID
 40
0.0
  9
$COORDS
 70
     0
  9
$SPLFRAME
 70
     0
  9
$SPLINETYPE
 70
     6
  9
$SPLINESEGS
 70
     8
  9
$ATTDIA
 70
     0
  9
$ATTREQ
 70
     1
  9
$HANDLING
 70
     1
  9
$HANDSEED
  5
11D
  9
$SURFTAB1
 70
     6
  9
$SURFTAB2
 70
     6
  9
$SURFTYPE
 70
     6
  9
$SURFU
 70
     6
  9
$SURFV
 70
     6
  9
$UCSNAME
  2

  9
$UCSORG
 10
0.0
 20
0.0
 30
0.0
  9
$UCSXDIR
 10
1.0
 20
0.0
 30
0.0
  9
$UCSYDIR
 10
0.0
 20
1.0
 30
0.0
  9
$PUCSNAME
  2

  9
$PUCSORG
 10
0.0
 20
0.0
 30
0.0
  9
$PUCSXDIR
 10
1.0
 20
0.0
 30
0.0
  9
$PUCSYDIR
 10
0.0
 20
1.0
 30
0.0
  9
$USERI1
 70
     0
  9
$USERI2
 70
     0
  9
$USERI3
 70
     0
  9
$USERI4
 70
     0
  9
$USERI5
 70
     0
  9
$USERR1
 40
0.0
  9
$USERR2
 40
0.0
  9
$USERR3
 40
0.0
  9
$USERR4
 40
0.0
  9
$USERR5
 40
0.0
  9
$WORLDVIEW
 70
     1
  9
$SHADEDGE
 70
     3
  9
$SHADEDIF
 70
    70
  9
$TILEMODE
 70
     1
  9
$MAXACTVP
 70
    16
  9
$PINSBASE
 10
0.0
 20
0.0
 30
0.0
  9
$PLIMCHECK
 70
     0
  9
$PEXTMIN
 10
1.000000E+20
 20
1.000000E+20
 30
1.000000E+20
  9
$PEXTMAX
 10
-1.000000E+20
 20
-1.000000E+20
 30
-1.000000E+20
  9
$PLIMMIN
 10
0.0
 20
0.0
  9
$PLIMMAX
 10
12.0
 20
9.0
  9
$UNITMODE
 70
     0
  9
$VISRETAIN
 70
     0
  9
$PLINEGEN
 70
     1
  9
$PSLTSCALE
 70
     0
  9
$TREEDEPTH
 70
  3020
  9
$DWGCODEPAGE
  3
dos850
  0
ENDSEC
  0
SECTION
  2
TABLES
  0
TABLE
  2
VPORT
 70
     1
  0
VPORT
  2
*ACTIVE
 70
     0
 10
0.0
 20
0.0
 11
1.0
 21
1.0
 12
6.591288
 22
4.579184
 13
0.0
 23
0.0
 14
1.0
 24
1.0
 15
0.0
 25
0.0
 16
0.0
 26
0.0
 36
1.0
 17
0.0
 27
0.0
 37
0.0
 40
9.158369
 41
0.688564
 42
50.0
 43
0.0
 44
0.0
 50
0.0
 51
0.0
 71
     0
 72
   100
 73
     1
 74
     1
 75
     0
 76
     0
 77
     0
 78
     0
  0
ENDTAB
  0
TABLE
  2
LTYPE
 70
     1
  0
LTYPE
  2
CONTINUOUS
 70
    64
  3
Solid line
 72
    65
 73
     0
 40
0.0
  0
ENDTAB
  0
TABLE
  2
LAYER
 70
     2
  0
LAYER
  2
0
 70
     0
 62
     7
  6
CONTINUOUS
  0
LAYER
  2
DEFAULT
 70
     0
 62
     7
  6
CONTINUOUS
  0
ENDTAB
  0
TABLE
  2
STYLE
 70
     1
  0
STYLE
  2
STANDARD
 70
     0
 40
0.0
 41
1.0
 50
0.0
 71
     0
 42
0.0
  3
txt
  4

  0
ENDTAB
  0
TABLE
  2
VIEW
 70
     0
  0
ENDTAB
  0
TABLE
  2
UCS
 70
     0
  0
ENDTAB
  0
TABLE
  2
APPID
 70
     1
  0
APPID
  2
ACAD
 70
     0
  0
ENDTAB
  0
TABLE
  2
DIMSTYLE
 70
     1
  0
DIMSTYLE
  2
STANDARD
 70
     0
  3

  4

  5

  6

  7

 40
1.0
 41
0.18
 42
0.0625
 43
0.38
 44
0.18
 45
0.0
 46
0.0
 47
0.0
 48
0.0
 71
     0
 72
     0
 73
     1
 74
     1
 75
     0
 76
     0
 77
     0
 78
     0
140
0.18
141
0.09
142
0.0
143
25.4
144
1.0
145
0.0
146
1.0
147
0.09
170
     0
171
     2
172
     0
173
     0
174
     0
175
     0
176
     0
177
     0
178
     0
  0
ENDTAB
  0
ENDSEC
  0
SECTION
  2
BLOCKS
  0
ENDSEC
  0
SECTION
  2
ENTITIES
  0
POLYLINE
  8
DEFAULT
  5
1E
 66
     1
 10
0.0
 20
0.0
 30
0.0
210
0.0
220
0.0
230
1.0
  0
VERTEX
  8
DEFAULT
  5
1F
 10
1.730207
 20
1.818949
 30
0.0
 42
0.414214
  0
VERTEX
  8
DEFAULT
  5
20
 10
1.858707
 20
1.690449
 30
0.0
  0
VERTEX
  8
DEFAULT
  5
21
 10
2.601707
 20
1.690449
 30
0.0
 42
1.0
  0
VERTEX
  8
DEFAULT
  5
22
 10
2.601707
 20
1.947449
 30
0.0
  0
VERTEX
  8
DEFAULT
  5
23
 10
1.858707
 20
1.947449
 30
0.0
 42
0.414214
  0
VERTEX
  8
DEFAULT
  5
24
 10
1.730207
 20
1.818949
 30
0.0
  0
SEQEND
  8
DEFAULT
  5
25
  0
POLYLINE
  8
DEFAULT
  5
26
 66
     1
 10
0.0
 20
0.0
 30
0.0
210
0.0
220
0.0
230
1.0
  0
VERTEX
  8
DEFAULT
  5
27
 10
2.980207
 20
2.837728
 30
0.0
  0
VERTEX
  8
DEFAULT
  5
28
 10
2.980207
 20
0.80017
 30
0.0
  0
VERTEX
  8
DEFAULT
  5
29
 10
2.949913
 20
0.802787
 30
0.0
  0
VERTEX
  8
DEFAULT
  5
2A
 10
2.918951
 20
0.810913
 30
0.0
  0
VERTEX
  8
DEFAULT
  5
2B
 10
2.88756
 20
0.824915
 30
0.0
  0
VERTEX
  8
DEFAULT
  5
2C
 10
2.856014
 20
0.845084
 30
0.0
  0
VERTEX
  8
DEFAULT
  5
2D
 10
2.824614
 20
0.871618
 30
0.0
  0
VERTEX
  8
DEFAULT
  5
2E
 10
2.793682
 20
0.904602
 30
0.0
  0
VERTEX
  8
DEFAULT
  5
2F
 10
2.734562
 20
0.989625
 30
0.0
  0
VERTEX
  8
DEFAULT
  5
30
 10
2.681285
 20
1.098234
 30
0.0
  0
VERTEX
  8
DEFAULT
  5
31
 10
2.636147
 20
1.226476
 30
0.0
  0
VERTEX
  8
DEFAULT
  5
32
 10
2.576027
 20
1.518949
 30
0.0
  0
VERTEX
  8
DEFAULT
  5
33
 10
1.480207
 20
1.518949
 30
0.0
  0
VERTEX
  8
DEFAULT
  5
34
 10
1.480207
 20
2.118949
 30
0.0
  0
VERTEX
  8
DEFAULT
  5
35
 10
2.576027
 20
2.118949
 30
0.0
  0
VERTEX
  8
DEFAULT
  5
36
 10
2.636147
 20
2.411422
 30
0.0
  0
VERTEX
  8
DEFAULT
  5
37
 10
2.681285
 20
2.539663
 30
0.0
  0
VERTEX
  8
DEFAULT
  5
38
 10
2.734562
 20
2.648273
 30
0.0
  0
VERTEX
  8
DEFAULT
  5
39
 10
2.793682
 20
2.733296
 30
0.0
  0
VERTEX
  8
DEFAULT
  5
3A
 10
2.824614
 20
2.76628
 30
0.0
  0
VERTEX
  8
DEFAULT
  5
3B
 10
2.856014
 20
2.792814
 30
0.0
  0
VERTEX
  8
DEFAULT
  5
3C
 10
2.88756
 20
2.812983
 30
0.0
  0
VERTEX
  8
DEFAULT
  5
3D
 10
2.918951
 20
2.826985
 30
0.0
  0
VERTEX
  8
DEFAULT
  5
3E
 10
2.949913
 20
2.835111
 30
0.0
  0
VERTEX
  8
DEFAULT
  5
3F
 10
2.980207
 20
2.837728
 30
0.0
  0
SEQEND
  8
DEFAULT
  5
40
  0
POLYLINE
  8
DEFAULT
  5
41
 66
     1
 10
0.0
 20
0.0
 30
0.0
210
0.0
220
0.0
230
1.0
  0
VERTEX
  8
DEFAULT
  5
42
 10
2.19196
 20
1.081311
 30
0.0
 42
-0.414214
  0
VERTEX
  8
DEFAULT
  5
43
 10
2.06346
 20
0.952811
 30
0.0
  0
VERTEX
  8
DEFAULT
  5
44
 10
1.32046
 20
0.952811
 30
0.0
 42
-1.0
  0
VERTEX
  8
DEFAULT
  5
45
 10
1.32046
 20
1.209811
 30
0.0
  0
VERTEX
  8
DEFAULT
  5
46
 10
2.06346
 20
1.209811
 30
0.0
 42
-0.414214
  0
VERTEX
  8
DEFAULT
  5
47
 10
2.19196
 20
1.081311
 30
0.0
  0
SEQEND
  8
DEFAULT
  5
48
  0
POLYLINE
  8
DEFAULT
  5
49
 66
     1
 10
0.0
 20
0.0
 30
0.0
210
0.0
220
0.0
230
1.0
  0
VERTEX
  8
DEFAULT
  5
4A
 10
0.94196
 20
2.10009
 30
0.0
  0
VERTEX
  8
DEFAULT
  5
4B
 10
0.94196
 20
0.062532
 30
0.0
  0
VERTEX
  8
DEFAULT
  5
4C
 10
0.972254
 20
0.065149
 30
0.0
  0
VERTEX
  8
DEFAULT
  5
4D
 10
1.003216
 20
0.073275
 30
0.0
  0
VERTEX
  8
DEFAULT
  5
4E
 10
1.034607
 20
0.087277
 30
0.0
  0
VERTEX
  8
DEFAULT
  5
4F
 10
1.066153
 20
0.107446
 30
0.0
  0
VERTEX
  8
DEFAULT
  5
50
 10
1.097553
 20
0.13398
 30
0.0
  0
VERTEX
  8
DEFAULT
  5
51
 10
1.128485
 20
0.166964
 30
0.0
  0
VERTEX
  8
DEFAULT
  5
52
 10
1.187605
 20
0.251987
 30
0.0
  0
VERTEX
  8
DEFAULT
  5
53
 10
1.240882
 20
0.360596
 30
0.0
  0
VERTEX
  8
DEFAULT
  5
54
 10
1.286019
 20
0.488838
 30
0.0
  0
VERTEX
  8
DEFAULT
  5
55
 10
1.34614
 20
0.781311
 30
0.0
  0
VERTEX
  8
DEFAULT
  5
56
 10
2.44196
 20
0.781311
 30
0.0
  0
VERTEX
  8
DEFAULT
  5
57
 10
2.44196
 20
1.381311
 30
0.0
  0
VERTEX
  8
DEFAULT
  5
58
 10
1.34614
 20
1.381311
 30
0.0
  0
VERTEX
  8
DEFAULT
  5
59
 10
1.286019
 20
1.673783
 30
0.0
  0
VERTEX
  8
DEFAULT
  5
5A
 10
1.240882
 20
1.802025
 30
0.0
  0
VERTEX
  8
DEFAULT
  5
5B
 10
1.187605
 20
1.910634
 30
0.0
  0
VERTEX
  8
DEFAULT
  5
5C
 10
1.128485
 20
1.995658
 30
0.0
  0
VERTEX
  8
DEFAULT
  5
5D
 10
1.097553
 20
2.028641
 30
0.0
  0
VERTEX
  8
DEFAULT
  5
5E
 10
1.066153
 20
2.055175
 30
0.0
  0
VERTEX
  8
DEFAULT
  5
5F
 10
1.034607
 20
2.075345
 30
0.0
  0
VERTEX
  8
DEFAULT
  5
60
 10
1.003216
 20
2.089347
 30
0.0
  0
VERTEX
  8
DEFAULT
  5
61
 10
0.972254
 20
2.097473
 30
0.0
  0
VERTEX
  8
DEFAULT
  5
62
 10
0.94196
 20
2.10009
 30
0.0
  0
SEQEND
  8
DEFAULT
  5
63
  0
POLYLINE
  8
DEFAULT
  5
64
 66
     1
 10
0.0
 20
0.0
 30
0.0
210
0.0
220
0.0
230
1.0
  0
VERTEX
  8
DEFAULT
  5
65
 10
2.961586
 20
3.547329
 30
0.0
  0
VERTEX
  8
DEFAULT
  5
66
 10
1.017273
 20
3.547329
 30
0.0
 42
-0.414214
  0
VERTEX
  8
DEFAULT
  5
67
 10
0.917273
 20
3.647329
 30
0.0
  0
VERTEX
  8
DEFAULT
  5
68
 10
0.917273
 20
3.954329
 30
0.0
 42
-0.414214
  0
VERTEX
  8
DEFAULT
  5
69
 10
1.017273
 20
4.054329
 30
0.0
  0
VERTEX
  8
DEFAULT
  5
6A
 10
2.961586
 20
4.054329
 30
0.0
 42
0.381671
  0
VERTEX
  8
DEFAULT
  5
6B
 10
3.060956
 20
4.143115
 30
0.0
  0
VERTEX
  8
DEFAULT
  5
6C
 10
3.144063
 20
4.566834
 30
0.0
  0
VERTEX
  8
DEFAULT
  5
6D
 10
3.210301
 20
4.755586
 30
0.0
  0
VERTEX
  8
DEFAULT
  5
6E
 10
3.290239
 20
4.916661
 30
0.0
  0
VERTEX
  8
DEFAULT
  5
6F
 10
3.334235
 20
4.984622
 30
0.0
  0
VERTEX
  8
DEFAULT
  5
70
 10
3.380213
 20
5.043405
 30
0.0
  0
VERTEX
  8
DEFAULT
  5
71
 10
3.427615
 20
5.092687
 30
0.0
  0
VERTEX
  8
DEFAULT
  5
72
 10
3.475878
 20
5.132359
 30
0.0
  0
VERTEX
  8
DEFAULT
  5
73
 10
3.52446
 20
5.162518
 30
0.0
  0
VERTEX
  8
DEFAULT
  5
74
 10
3.572851
 20
5.183445
 30
0.0
  0
VERTEX
  8
DEFAULT
  5
75
 10
3.62059
 20
5.195579
 30
0.0
  0
VERTEX
  8
DEFAULT
  5
76
 10
3.667273
 20
5.199482
 30
0.0
  0
VERTEX
  8
DEFAULT
  5
77
 10
3.667273
 20
2.402176
 30
0.0
  0
VERTEX
  8
DEFAULT
  5
78
 10
3.62059
 20
2.406079
 30
0.0
  0
VERTEX
  8
DEFAULT
  5
79
 10
3.572851
 20
2.418212
 30
0.0
  0
VERTEX
  8
DEFAULT
  5
7A
 10
3.52446
 20
2.439139
 30
0.0
  0
VERTEX
  8
DEFAULT
  5
7B
 10
3.475878
 20
2.469298
 30
0.0
  0
VERTEX
  8
DEFAULT
  5
7C
 10
3.427615
 20
2.50897
 30
0.0
  0
VERTEX
  8
DEFAULT
  5
7D
 10
3.380213
 20
2.558252
 30
0.0
  0
VERTEX
  8
DEFAULT
  5
7E
 10
3.334235
 20
2.617036
 30
0.0
  0
VERTEX
  8
DEFAULT
  5
7F
 10
3.290239
 20
2.684996
 30
0.0
  0
VERTEX
  8
DEFAULT
  5
80
 10
3.210301
 20
2.846071
 30
0.0
  0
VERTEX
  8
DEFAULT
  5
81
 10
3.144063
 20
3.034823
 30
0.0
  0
VERTEX
  8
DEFAULT
  5
82
 10
3.060956
 20
3.458542
 30
0.0
 42
0.381671
  0
VERTEX
  8
DEFAULT
  5
83
 10
2.961586
 20
3.547329
 30
0.0
  0
SEQEND
  8
DEFAULT
  5
84
  0
POLYLINE
  8
DEFAULT
  5
85
 66
     1
 10
0.0
 20
0.0
 30
0.0
210
0.0
220
0.0
230
1.0
  0
VERTEX
  8
DEFAULT
  5
86
 10
1.295773
 20
3.929329
 30
0.0
 42
1.0
  0
VERTEX
  8
DEFAULT
  5
87
 10
1.295773
 20
3.672329
 30
0.0
  0
VERTEX
  8
DEFAULT
  5
88
 10
3.288773
 20
3.672329
 30
0.0
 42
1.0
  0
VERTEX
  8
DEFAULT
  5
89
 10
3.288773
 20
3.929329
 30
0.0
  0
VERTEX
  8
DEFAULT
  5
8A
 10
1.295773
 20
3.929329
 30
0.0
  0
SEQEND
  8
DEFAULT
  5
8B
  0
POLYLINE
  8
DEFAULT
  5
8C
 66
     1
 10
0.0
 20
0.0
 30
0.0
210
0.0
220
0.0
230
1.0
  0
VERTEX
  8
DEFAULT
  5
8D
 10
0.902346
 20
2.92616
 30
0.0
  0
VERTEX
  8
DEFAULT
  5
8E
 10
2.846659
 20
2.92616
 30
0.0
 42
0.414214
  0
VERTEX
  8
DEFAULT
  5
8F
 10
2.946659
 20
3.02616
 30
0.0
  0
VERTEX
  8
DEFAULT
  5
90
 10
2.946659
 20
3.33316
 30
0.0
 42
0.414214
  0
VERTEX
  8
DEFAULT
  5
91
 10
2.846659
 20
3.43316
 30
0.0
  0
VERTEX
  8
DEFAULT
  5
92
 10
0.902346
 20
3.43316
 30
0.0
 42
-0.381671
  0
VERTEX
  8
DEFAULT
  5
93
 10
0.802977
 20
3.521946
 30
0.0
  0
VERTEX
  8
DEFAULT
  5
94
 10
0.71987
 20
3.945665
 30
0.0
  0
VERTEX
  8
DEFAULT
  5
95
 10
0.653632
 20
4.134417
 30
0.0
  0
VERTEX
  8
DEFAULT
  5
96
 10
0.573694
 20
4.295492
 30
0.0
  0
VERTEX
  8
DEFAULT
  5
97
 10
0.529698
 20
4.363453
 30
0.0
  0
VERTEX
  8
DEFAULT
  5
98
 10
0.483719
 20
4.422236
 30
0.0
  0
VERTEX
  8
DEFAULT
  5
99
 10
0.436317
 20
4.471518
 30
0.0
  0
VERTEX
  8
DEFAULT
  5
9A
 10
0.388054
 20
4.51119
 30
0.0
  0
VERTEX
  8
DEFAULT
  5
9B
 10
0.339472
 20
4.541349
 30
0.0
  0
VERTEX
  8
DEFAULT
  5
9C
 10
0.291081
 20
4.562276
 30
0.0
  0
VERTEX
  8
DEFAULT
  5
9D
 10
0.243342
 20
4.57441
 30
0.0
  0
VERTEX
  8
DEFAULT
  5
9E
 10
0.196659
 20
4.578313
 30
0.0
  0
VERTEX
  8
DEFAULT
  5
9F
 10
0.196659
 20
1.781007
 30
0.0
  0
VERTEX
  8
DEFAULT
  5
A0
 10
0.243342
 20
1.78491
 30
0.0
  0
VERTEX
  8
DEFAULT
  5
A1
 10
0.291081
 20
1.797043
 30
0.0
  0
VERTEX
  8
DEFAULT
  5
A2
 10
0.339472
 20
1.81797
 30
0.0
  0
VERTEX
  8
DEFAULT
  5
A3
 10
0.388054
 20
1.848129
 30
0.0
  0
VERTEX
  8
DEFAULT
  5
A4
 10
0.436317
 20
1.887801
 30
0.0
  0
VERTEX
  8
DEFAULT
  5
A5
 10
0.483719
 20
1.937083
 30
0.0
  0
VERTEX
  8
DEFAULT
  5
A6
 10
0.529698
 20
1.995867
 30
0.0
  0
VERTEX
  8
DEFAULT
  5
A7
 10
0.573694
 20
2.063827
 30
0.0
  0
VERTEX
  8
DEFAULT
  5
A8
 10
0.653632
 20
2.224902
 30
0.0
  0
VERTEX
  8
DEFAULT
  5
A9
 10
0.71987
 20
2.413654
 30
0.0
  0
VERTEX
  8
DEFAULT
  5
AA
 10
0.802977
 20
2.837373
 30
0.0
 42
-0.381671
  0
VERTEX
  8
DEFAULT
  5
AB
 10
0.902346
 20
2.92616
 30
0.0
  0
SEQEND
  8
DEFAULT
  5
AC
  0
POLYLINE
  8
DEFAULT
  5
AD
 66
     1
 10
0.0
 20
0.0
 30
0.0
210
0.0
220
0.0
230
1.0
  0
VERTEX
  8
DEFAULT
  5
AE
 10
2.568159
 20
3.30816
 30
0.0
 42
-1.0
  0
VERTEX
  8
DEFAULT
  5
AF
 10
2.568159
 20
3.05116
 30
0.0
  0
VERTEX
  8
DEFAULT
  5
B0
 10
0.575159
 20
3.05116
 30
0.0
 42
-1.0
  0
VERTEX
  8
DEFAULT
  5
B1
 10
0.575159
 20
3.30816
 30
0.0
  0
VERTEX
  8
DEFAULT
  5
B2
 10
2.568159
 20
3.30816
 30
0.0
  0
SEQEND
  8
DEFAULT
  5
B3
  0
POLYLINE
  8
DEFAULT
  5
B4
 66
     1
 10
0.0
 20
0.0
 30
0.0
210
0.0
220
0.0
230
1.0
  0
VERTEX
  8
DEFAULT
  5
B5
 10
3.690782
 20
7.180973
 30
0.0
  0
VERTEX
  8
DEFAULT
  5
B6
 10
3.690782
 20
7.734473
 30
0.0
  0
VERTEX
  8
DEFAULT
  5
B7
 10
0.940782
 20
7.734473
 30
0.0
  0
VERTEX
  8
DEFAULT
  5
B8
 10
0.940782
 20
7.180973
 30
0.0
  0
VERTEX
  8
DEFAULT
  5
B9
 10
3.243162
 20
7.180973
 30
0.0
  0
VERTEX
  8
DEFAULT
  5
BA
 10
3.243162
 20
5.616305
 30
0.0
  0
VERTEX
  8
DEFAULT
  5
BB
 10
3.690782
 20
5.616305
 30
0.0
  0
VERTEX
  8
DEFAULT
  5
BC
 10
3.690782
 20
7.180973
 30
0.0
  0
SEQEND
  8
DEFAULT
  5
BD
  0
POLYLINE
  8
DEFAULT
  5
BE
 66
     1
 10
0.0
 20
0.0
 30
0.0
210
0.0
220
0.0
230
1.0
  0
VERTEX
  8
DEFAULT
  5
BF
 10
1.319282
 20
7.586223
 30
0.0
 42
1.0
  0
VERTEX
  8
DEFAULT
  5
C0
 10
1.319282
 20
7.329223
 30
0.0
  0
VERTEX
  8
DEFAULT
  5
C1
 10
3.312282
 20
7.329223
 30
0.0
 42
1.0
  0
VERTEX
  8
DEFAULT
  5
C2
 10
3.312282
 20
7.586223
 30
0.0
  0
VERTEX
  8
DEFAULT
  5
C3
 10
1.319282
 20
7.586223
 30
0.0
  0
SEQEND
  8
DEFAULT
  5
C4
  0
POLYLINE
  8
DEFAULT
  5
C5
 66
     1
 10
0.0
 20
0.0
 30
0.0
210
0.0
220
0.0
230
1.0
  0
VERTEX
  8
DEFAULT
  5
C6
 10
0.771662
 20
6.932723
 30
0.0
 42
1.0
  0
VERTEX
  8
DEFAULT
  5
C7
 10
0.771662
 20
6.675723
 30
0.0
  0
VERTEX
  8
DEFAULT
  5
C8
 10
2.764662
 20
6.675723
 30
0.0
 42
1.0
  0
VERTEX
  8
DEFAULT
  5
C9
 10
2.764662
 20
6.932723
 30
0.0
  0
VERTEX
  8
DEFAULT
  5
CA
 10
0.771662
 20
6.932723
 30
0.0
  0
SEQEND
  8
DEFAULT
  5
CB
  0
POLYLINE
  8
DEFAULT
  5
CC
 66
     1
 10
0.0
 20
0.0
 30
0.0
210
0.0
220
0.0
230
1.0
  0
VERTEX
  8
DEFAULT
  5
CD
 10
3.143162
 20
6.527473
 30
0.0
  0
VERTEX
  8
DEFAULT
  5
CE
 10
3.143162
 20
7.080973
 30
0.0
  0
VERTEX
  8
DEFAULT
  5
CF
 10
0.393162
 20
7.080973
 30
0.0
  0
VERTEX
  8
DEFAULT
  5
D0
 10
0.393162
 20
6.527473
 30
0.0
  0
VERTEX
  8
DEFAULT
  5
D1
 10
2.695542
 20
6.527473
 30
0.0
  0
VERTEX
  8
DEFAULT
  5
D2
 10
2.695542
 20
4.962805
 30
0.0
  0
VERTEX
  8
DEFAULT
  5
D3
 10
3.143162
 20
4.962805
 30
0.0
  0
VERTEX
  8
DEFAULT
  5
D4
 10
3.143162
 20
6.527473
 30
0.0
  0
SEQEND
  8
DEFAULT
  5
D5
  0
POLYLINE
  8
DEFAULT
  5
D6
 66
     1
 10
0.0
 20
0.0
 30
0.0
210
0.0
220
0.0
230
1.0
  0
VERTEX
  8
DEFAULT
  5
D7
 10
1.517468
 20
5.668172
 30
0.0
 42
-0.205494
  0
VERTEX
  8
DEFAULT
  5
D8
 10
1.517468
 20
5.990906
 30
0.0
 42
0.535782
  0
VERTEX
  8
DEFAULT
  5
D9
 10
1.425232
 20
6.129539
 30
0.0
  0
VERTEX
  8
DEFAULT
  5
DA
 10
0.209308
 20
6.129539
 30
0.0
 42
0.414214
  0
VERTEX
  8
DEFAULT
  5
DB
 10
0.109308
 20
6.029539
 30
0.0
  0
VERTEX
  8
DEFAULT
  5
DC
 10
0.109308
 20
5.629539
 30
0.0
 42
0.414214
  0
VERTEX
  8
DEFAULT
  5
DD
 10
0.209308
 20
5.529539
 30
0.0
  0
VERTEX
  8
DEFAULT
  5
DE
 10
1.425232
 20
5.529539
 30
0.0
 42
0.535782
  0
VERTEX
  8
DEFAULT
  5
DF
 10
1.517468
 20
5.668172
 30
0.0
  0
SEQEND
  8
DEFAULT
  5
E0
  0
POLYLINE
  8
DEFAULT
  5
E1
 66
     1
 10
0.0
 20
0.0
 30
0.0
210
0.0
220
0.0
230
1.0
  0
VERTEX
  8
DEFAULT
  5
E2
 10
0.359308
 20
5.829539
 30
0.0
 42
0.414214
  0
VERTEX
  8
DEFAULT
  5
E3
 10
0.487808
 20
5.701039
 30
0.0
  0
VERTEX
  8
DEFAULT
  5
E4
 10
1.230808
 20
5.701039
 30
0.0
 42
1.0
  0
VERTEX
  8
DEFAULT
  5
E5
 10
1.230808
 20
5.958039
 30
0.0
  0
VERTEX
  8
DEFAULT
  5
E6
 10
0.487808
 20
5.958039
 30
0.0
 42
0.414214
  0
VERTEX
  8
DEFAULT
  5
E7
 10
0.359308
 20
5.829539
 30
0.0
  0
SEQEND
  8
DEFAULT
  5
E8
  0
POLYLINE
  8
DEFAULT
  5
E9
 66
     1
 10
0.0
 20
0.0
 30
0.0
210
0.0
220
0.0
230
1.0
  0
VERTEX
  8
DEFAULT
  5
EA
 10
0.359308
 20
5.019792
 30
0.0
 42
0.414214
  0
VERTEX
  8
DEFAULT
  5
EB
 10
0.487808
 20
4.891292
 30
0.0
  0
VERTEX
  8
DEFAULT
  5
EC
 10
1.230808
 20
4.891292
 30
0.0
 42
1.0
  0
VERTEX
  8
DEFAULT
  5
ED
 10
1.230808
 20
5.148292
 30
0.0
  0
VERTEX
  8
DEFAULT
  5
EE
 10
0.487808
 20
5.148292
 30
0.0
 42
0.414214
  0
VERTEX
  8
DEFAULT
  5
EF
 10
0.359308
 20
5.019792
 30
0.0
  0
SEQEND
  8
DEFAULT
  5
F0
  0
POLYLINE
  8
DEFAULT
  5
F1
 66
     1
 10
0.0
 20
0.0
 30
0.0
210
0.0
220
0.0
230
1.0
  0
VERTEX
  8
DEFAULT
  5
F2
 10
1.684308
 20
4.719792
 30
0.0
 42
0.414214
  0
VERTEX
  8
DEFAULT
  5
F3
 10
1.784308
 20
4.819792
 30
0.0
  0
VERTEX
  8
DEFAULT
  5
F4
 10
1.784308
 20
5.219792
 30
0.0
 42
0.414214
  0
VERTEX
  8
DEFAULT
  5
F5
 10
1.684308
 20
5.319792
 30
0.0
  0
VERTEX
  8
DEFAULT
  5
F6
 10
0.209308
 20
5.319792
 30
0.0
 42
0.414214
  0
VERTEX
  8
DEFAULT
  5
F7
 10
0.109308
 20
5.219792
 30
0.0
  0
VERTEX
  8
DEFAULT
  5
F8
 10
0.109308
 20
4.819792
 30
0.0
 42
0.414214
  0
VERTEX
  8
DEFAULT
  5
F9
 10
0.209308
 20
4.719792
 30
0.0
  0
VERTEX
  8
DEFAULT
  5
FA
 10
1.684308
 20
4.719792
 30
0.0
  0
SEQEND
  8
DEFAULT
  5
FB
  0
POLYLINE
  8
DEFAULT
  5
FC
 66
     1
 10
0.0
 20
0.0
 30
0.0
210
0.0
220
0.0
230
1.0
  0
VERTEX
  8
DEFAULT
  5
FD
 10
2.509308
 20
5.229539
 30
0.0
  0
VERTEX
  8
DEFAULT
  5
FE
 10
2.345541
 20
5.239555
 30
0.0
  0
VERTEX
  8
DEFAULT
  5
FF
 10
2.178023
 20
5.271666
 30
0.0
  0
VERTEX
  8
DEFAULT
  5
100
 10
2.016819
 20
5.327341
 30
0.0
  0
VERTEX
  8
DEFAULT
  5
101
 10
1.94204
 20
5.363727
 30
0.0
  0
VERTEX
  8
DEFAULT
  5
102
 10
1.872912
 20
5.405275
 30
0.0
  0
VERTEX
  8
DEFAULT
  5
103
 10
1.81059
 20
5.45136
 30
0.0
  0
VERTEX
  8
DEFAULT
  5
104
 10
1.756012
 20
5.501213
 30
0.0
  0
VERTEX
  8
DEFAULT
  5
105
 10
1.709852
 20
5.553962
 30
0.0
  0
VERTEX
  8
DEFAULT
  5
106
 10
1.672498
 20
5.608682
 30
0.0
  0
VERTEX
  8
DEFAULT
  5
107
 10
1.644049
 20
5.664444
 30
0.0
  0
VERTEX
  8
DEFAULT
  5
108
 10
1.624333
 20
5.720361
 30
0.0
  0
VERTEX
  8
DEFAULT
  5
109
 10
1.612948
 20
5.775626
 30
0.0
  0
VERTEX
  8
DEFAULT
  5
10A
 10
1.609308
 20
5.829539
 30
0.0
  0
VERTEX
  8
DEFAULT
  5
10B
 10
1.612948
 20
5.883451
 30
0.0
  0
VERTEX
  8
DEFAULT
  5
10C
 10
1.624333
 20
5.938717
 30
0.0
  0
VERTEX
  8
DEFAULT
  5
10D
 10
1.644049
 20
5.994634
 30
0.0
  0
VERTEX
  8
DEFAULT
  5
10E
 10
1.672498
 20
6.050396
 30
0.0
  0
VERTEX
  8
DEFAULT
  5
10F
 10
1.709852
 20
6.105115
 30
0.0
  0
VERTEX
  8
DEFAULT
  5
110
 10
1.756012
 20
6.157865
 30
0.0
  0
VERTEX
  8
DEFAULT
  5
111
 10
1.81059
 20
6.207718
 30
0.0
  0
VERTEX
  8
DEFAULT
  5
112
 10
1.872912
 20
6.253803
 30
0.0
  0
VERTEX
  8
DEFAULT
  5
113
 10
1.94204
 20
6.295351
 30
0.0
  0
VERTEX
  8
DEFAULT
  5
114
 10
2.016819
 20
6.331736
 30
0.0
  0
VERTEX
  8
DEFAULT
  5
115
 10
2.178023
 20
6.387412
 30
0.0
  0
VERTEX
  8
DEFAULT
  5
116
 10
2.345541
 20
6.419522
 30
0.0
  0
VERTEX
  8
DEFAULT
  5
117
 10
2.509308
 20
6.429539
 30
0.0
  0
VERTEX
  8
DEFAULT
  5
118
 10
1.909308
 20
5.829539
 30
0.0
  0
VERTEX
  8
DEFAULT
  5
119
 10
2.509308
 20
5.229539
 30
0.0
  0
SEQEND
  8
DEFAULT
  5
11A
  0
ENDSEC
  0
EOF
