  0
SECTION
  2
HEADER
  9
$ACADVER
  1
AC1003
  9
$EXTMIN
 10
0.0474119999887473
 20
4.394744
  9
$EXTMAX
 10
3.3125
 20
0.0592250000000001
  9
$INSBASE
 10
1.67995599999437
 20
2.2269845
999
Created with OMAX Windows DXF File exporter 11/6/2002
  0
ENDSEC
  0
SECTION
  2
TABLES
  0
TABLE
  2
LAYER
 70
    10
  0
LAYER
  2
0
 70
     0
 62
     7
  6
CONTINUOUS
  0
LAYER
  2
1
 70
     0
 62
     7
  6
CONTINUOUS
  0
LAYER
  2
2
 70
     0
 62
     7
  6
CONTINUOUS
  0
LAYER
  2
3
 70
     0
 62
     7
  6
CONTINUOUS
  0
LAYER
  2
4
 70
     0
 62
     7
  6
CONTINUOUS
  0
LAYER
  2
5
 70
     0
 62
     7
  6
CONTINUOUS
  0
LAYER
  2
6
 70
     0
 62
     7
  6
CONTINUOUS
  0
LAYER
  2
7
 70
     0
 62
     7
  6
CONTINUOUS
  0
LAYER
  2
8
 70
     0
 62
     7
  6
CONTINUOUS
  0
LAYER
  2
9
 70
     0
 62
     7
  6
CONTINUOUS
  0
LAYER
  2
10
 70
     0
 62
     7
  6
CONTINUOUS
  0
ENDTAB
  0
ENDSEC
  0
SECTION
  2
ENTITIES
  0
LINE
  8
4
  6
CONTINUOUS
 62
4
 10
3.3125
 20
3.841244
 30
0.0
 11
3.3125
 21
4.394744
 31
0.0
  0
LINE
  8
4
  6
CONTINUOUS
 62
4
 10
3.3125
 20
4.394744
 30
0.0
 11
0.5625
 21
4.394744
 31
0.0
  0
LINE
  8
4
  6
CONTINUOUS
 62
4
 10
0.5625
 20
4.394744
 30
0.0
 11
0.5625
 21
3.841244
 31
0.0
  0
LINE
  8
4
  6
CONTINUOUS
 62
4
 10
0.5625
 20
3.841244
 30
0.0
 11
2.86488
 21
3.841244
 31
0.0
  0
LINE
  8
4
  6
CONTINUOUS
 62
4
 10
2.86488
 20
3.841244
 30
0.0
 11
2.86488
 21
2.276576
 31
0.0
  0
LINE
  8
4
  6
CONTINUOUS
 62
4
 10
2.86488
 20
2.276576
 30
0.0
 11
3.3125
 21
2.276576
 31
0.0
  0
LINE
  8
4
  6
CONTINUOUS
 62
4
 10
3.3125
 20
2.276576
 30
0.0
 11
3.3125
 21
3.841244
 31
0.0
  0
LINE
  8
4
  6
CONTINUOUS
 62
4
 10
3.3125
 20
4.394744
 30
0.0
 11
2.86488
 21
4.394744
 31
0.0
  0
LINE
  8
4
  6
CONTINUOUS
 62
4
 10
0.941
 20
3.989494
 30
0.0
 11
2.934
 21
3.989494
 31
0.0
  0
ARC
  8
4
  6
CONTINUOUS
 62
4
 10
2.93399999997692
 20
4.117994
 30
0.0
 40
0.1285
 50
270.000000002572
 51
89.9999999974277
  0
LINE
  8
4
  6
CONTINUOUS
 62
4
 10
2.934
 20
4.246494
 30
0.0
 11
0.941
 21
4.246494
 31
0.0
  0
ARC
  8
4
  6
CONTINUOUS
 62
4
 10
0.657145903974877
 20
3.14330990400372
 30
0.0
 40
0.128499903989336
 50
179.999957207289
 51
270.000042815863
  0
LINE
  8
4
  6
CONTINUOUS
 62
4
 10
0.657146
 20
3.01481
 30
0.0
 11
1.400146
 21
3.01481
 31
0.0
  0
LINE
  8
4
  6
CONTINUOUS
 62
4
 10
1.400146
 20
3.27181
 30
0.0
 11
0.657146
 21
3.27181
 31
0.0
  0
ARC
  8
4
  6
CONTINUOUS
 62
4
 10
0.657145903992185
 20
3.14331009601358
 30
0.0
 40
0.128499903989336
 50
89.9999572021441
 51
180.000042810718
  0
ARC
  8
4
  6
CONTINUOUS
 62
4
 10
2.06285792645814
 20
3.14330999997673
 30
0.0
 40
0.40921187672473
 50
156.775427620404
 51
203.224572379596
  0
ARC
  8
4
  6
CONTINUOUS
 62
4
 10
1.59457004296793
 20
3.34331007047583
 30
0.0
 40
0.0999999295221063
 50
337.273606170637
 51
90.0000246291191
  0
LINE
  8
4
  6
CONTINUOUS
 62
4
 10
1.59457
 20
3.44331
 30
0.0
 11
0.378646
 21
3.44331
 31
0.0
  0
ARC
  8
4
  6
CONTINUOUS
 62
4
 10
0.378645925285747
 20
3.34331007471874
 30
0.0
 40
0.0999999252835304
 50
89.9999572021441
 51
180.000042810718
  0
LINE
  8
4
  6
CONTINUOUS
 62
4
 10
0.278646
 20
3.34331
 30
0.0
 11
0.278646
 21
2.94331
 31
0.0
  0
ARC
  8
4
  6
CONTINUOUS
 62
4
 10
0.378645925272278
 20
2.94330992529473
 30
0.0
 40
0.0999999252835305
 50
179.999957207289
 51
270.000042815863
  0
LINE
  8
4
  6
CONTINUOUS
 62
4
 10
0.378646
 20
2.84331
 30
0.0
 11
1.59457
 21
2.84331
 31
0.0
  0
LINE
  8
4
  6
CONTINUOUS
 62
4
 10
2.678646
 20
2.54331
 30
0.0
 11
2.514879
 21
2.553326
 31
0.0
  0
LINE
  8
4
  6
CONTINUOUS
 62
4
 10
2.514879
 20
2.553326
 30
0.0
 11
2.347361
 21
2.585437
 31
0.0
  0
LINE
  8
4
  6
CONTINUOUS
 62
4
 10
2.347361
 20
2.585437
 30
0.0
 11
2.186157
 21
2.641112
 31
0.0
  0
LINE
  8
4
  6
CONTINUOUS
 62
4
 10
2.186157
 20
2.641112
 30
0.0
 11
2.111378
 21
2.677498
 31
0.0
  0
LINE
  8
4
  6
CONTINUOUS
 62
4
 10
2.111378
 20
2.677498
 30
0.0
 11
2.04225
 21
2.719046
 31
0.0
  0
LINE
  8
4
  6
CONTINUOUS
 62
4
 10
2.04225
 20
2.719046
 30
0.0
 11
1.979928
 21
2.765131
 31
0.0
  0
LINE
  8
4
  6
CONTINUOUS
 62
4
 10
1.979928
 20
2.765131
 30
0.0
 11
1.92535
 21
2.814984
 31
0.0
  0
LINE
  8
4
  6
CONTINUOUS
 62
4
 10
1.92535
 20
2.814984
 30
0.0
 11
1.87919
 21
2.867733
 31
0.0
  0
LINE
  8
4
  6
CONTINUOUS
 62
4
 10
1.87919
 20
2.867733
 30
0.0
 11
1.841836
 21
2.922453
 31
0.0
  0
LINE
  8
4
  6
CONTINUOUS
 62
4
 10
1.841836
 20
2.922453
 30
0.0
 11
1.813387
 21
2.978215
 31
0.0
  0
LINE
  8
4
  6
CONTINUOUS
 62
4
 10
1.813387
 20
2.978215
 30
0.0
 11
1.793671
 21
3.034132
 31
0.0
  0
LINE
  8
4
  6
CONTINUOUS
 62
4
 10
1.793671
 20
3.034132
 30
0.0
 11
1.782286
 21
3.089397
 31
0.0
  0
LINE
  8
4
  6
CONTINUOUS
 62
4
 10
1.782286
 20
3.089397
 30
0.0
 11
1.778646
 21
3.14331
 31
0.0
  0
LINE
  8
4
  6
CONTINUOUS
 62
4
 10
1.778646
 20
3.14331
 30
0.0
 11
1.782286
 21
3.197222
 31
0.0
  0
LINE
  8
4
  6
CONTINUOUS
 62
4
 10
1.782286
 20
3.197222
 30
0.0
 11
1.793671
 21
3.252488
 31
0.0
  0
LINE
  8
4
  6
CONTINUOUS
 62
4
 10
1.793671
 20
3.252488
 30
0.0
 11
1.813387
 21
3.308405
 31
0.0
  0
LINE
  8
4
  6
CONTINUOUS
 62
4
 10
1.813387
 20
3.308405
 30
0.0
 11
1.841836
 21
3.364167
 31
0.0
  0
LINE
  8
4
  6
CONTINUOUS
 62
4
 10
1.841836
 20
3.364167
 30
0.0
 11
1.87919
 21
3.418886
 31
0.0
  0
LINE
  8
4
  6
CONTINUOUS
 62
4
 10
1.87919
 20
3.418886
 30
0.0
 11
1.92535
 21
3.471636
 31
0.0
  0
LINE
  8
4
  6
CONTINUOUS
 62
4
 10
1.92535
 20
3.471636
 30
0.0
 11
1.979928
 21
3.521489
 31
0.0
  0
LINE
  8
4
  6
CONTINUOUS
 62
4
 10
1.979928
 20
3.521489
 30
0.0
 11
2.04225
 21
3.567574
 31
0.0
  0
LINE
  8
4
  6
CONTINUOUS
 62
4
 10
2.04225
 20
3.567574
 30
0.0
 11
2.111378
 21
3.609122
 31
0.0
  0
LINE
  8
4
  6
CONTINUOUS
 62
4
 10
2.111378
 20
3.609122
 30
0.0
 11
2.186157
 21
3.645507
 31
0.0
  0
LINE
  8
4
  6
CONTINUOUS
 62
4
 10
2.186157
 20
3.645507
 30
0.0
 11
2.347361
 21
3.701183
 31
0.0
  0
LINE
  8
4
  6
CONTINUOUS
 62
4
 10
2.347361
 20
3.701183
 30
0.0
 11
2.514879
 21
3.733293
 31
0.0
  0
LINE
  8
4
  6
CONTINUOUS
 62
4
 10
2.514879
 20
3.733293
 30
0.0
 11
2.678646
 21
3.74331
 31
0.0
  0
LINE
  8
4
  6
CONTINUOUS
 62
4
 10
2.678646
 20
3.74331
 30
0.0
 11
2.078646
 21
3.14331
 31
0.0
  0
LINE
  8
4
  6
CONTINUOUS
 62
4
 10
2.078646
 20
3.14331
 30
0.0
 11
2.678646
 21
2.54331
 31
0.0
  0
ARC
  8
4
  6
CONTINUOUS
 62
4
 10
0.941000000011539
 20
0.335975
 30
0.0
 40
0.1285
 50
90.0000000025723
 51
269.999999997427
  0
ARC
  8
4
  6
CONTINUOUS
 62
4
 10
2.93399999997692
 20
0.335975
 30
0.0
 40
0.1285
 50
270.000000002572
 51
89.9999999974277
  0
LINE
  8
4
  6
CONTINUOUS
 62
4
 10
2.934
 20
0.207475
 30
0.0
 11
0.941
 21
0.207475
 31
0.0
  0
LINE
  8
4
  6
CONTINUOUS
 62
4
 10
3.3125
 20
0.612725
 30
0.0
 11
3.3125
 21
0.0592250000000001
 31
0.0
  0
LINE
  8
4
  6
CONTINUOUS
 62
4
 10
3.3125
 20
0.0592250000000001
 30
0.0
 11
0.5625
 21
0.0592250000000001
 31
0.0
  0
LINE
  8
4
  6
CONTINUOUS
 62
4
 10
0.5625
 20
0.0592250000000001
 30
0.0
 11
0.5625
 21
0.612725
 31
0.0
  0
LINE
  8
4
  6
CONTINUOUS
 62
4
 10
0.5625
 20
0.612725
 30
0.0
 11
2.86488
 21
0.612725
 31
0.0
  0
LINE
  8
4
  6
CONTINUOUS
 62
4
 10
2.86488
 20
0.612725
 30
0.0
 11
2.86488
 21
2.177393
 31
0.0
  0
LINE
  8
4
  6
CONTINUOUS
 62
4
 10
2.86488
 20
2.177393
 30
0.0
 11
3.3125
 21
2.177393
 31
0.0
  0
LINE
  8
4
  6
CONTINUOUS
 62
4
 10
3.3125
 20
2.177393
 30
0.0
 11
3.3125
 21
0.612725
 31
0.0
  0
LINE
  8
4
  6
CONTINUOUS
 62
4
 10
1.953646
 20
2.133563
 30
0.0
 11
1.953646
 21
2.533563
 31
0.0
  0
ARC
  8
4
  6
CONTINUOUS
 62
4
 10
1.85364607470976
 20
2.53356307470527
 30
0.0
 40
0.0999999252925096
 50
359.999957196999
 51
90.0000428158632
  0
LINE
  8
4
  6
CONTINUOUS
 62
4
 10
1.853646
 20
2.633563
 30
0.0
 11
0.378646
 21
2.633563
 31
0.0
  0
ARC
  8
4
  6
CONTINUOUS
 62
4
 10
0.378645925285747
 20
2.53356307471874
 30
0.0
 40
0.0999999252835301
 50
89.999957202144
 51
180.000042810718
  0
LINE
  8
4
  6
CONTINUOUS
 62
4
 10
0.278646
 20
2.533563
 30
0.0
 11
0.278646
 21
2.133563
 31
0.0
  0
ARC
  8
4
  6
CONTINUOUS
 62
4
 10
0.378645925272278
 20
2.13356292529473
 30
0.0
 40
0.0999999252835302
 50
179.999957207289
 51
270.000042815863
  0
LINE
  8
4
  6
CONTINUOUS
 62
4
 10
0.378646
 20
2.033563
 30
0.0
 11
1.853646
 21
2.033563
 31
0.0
  0
ARC
  8
4
  6
CONTINUOUS
 62
4
 10
0.657145903974877
 20
2.33356290400372
 30
0.0
 40
0.128499903989336
 50
179.999957207289
 51
270.000042815863
  0
LINE
  8
4
  6
CONTINUOUS
 62
4
 10
0.657146
 20
2.205063
 30
0.0
 11
1.400146
 21
2.205063
 31
0.0
  0
LINE
  8
4
  6
CONTINUOUS
 62
4
 10
1.400146
 20
2.462063
 30
0.0
 11
0.657146
 21
2.462063
 31
0.0
  0
ARC
  8
4
  6
CONTINUOUS
 62
4
 10
0.657145903992185
 20
2.33356309601358
 30
0.0
 40
0.128499903989336
 50
89.9999572021441
 51
180.000042810718
  0
LINE
  8
4
  6
CONTINUOUS
 62
4
 10
2.56101
 20
1.885765
 30
0.0
 11
0.147412
 21
1.885765
 31
0.0
  0
ARC
  8
4
  6
CONTINUOUS
 62
4
 10
0.147411925285747
 20
1.78576507471874
 30
0.0
 40
0.0999999252835301
 50
89.9999572021441
 51
180.000042810718
  0
LINE
  8
4
  6
CONTINUOUS
 62
4
 10
0.047412
 20
1.785765
 30
0.0
 11
0.047412
 21
1.478765
 31
0.0
  0
ARC
  8
4
  6
CONTINUOUS
 62
4
 10
0.147411925272278
 20
1.47876492529473
 30
0.0
 40
0.09999992528353
 50
179.999957207289
 51
270.000042815863
  0
ARC
  8
4
  6
CONTINUOUS
 62
4
 10
2.56101007470527
 20
1.47876492529024
 30
0.0
 40
0.0999999252925096
 50
269.999957196999
 51
4.28158632298055E-5
  0
LINE
  8
4
  6
CONTINUOUS
 62
4
 10
2.66101
 20
1.478765
 30
0.0
 11
2.66101
 21
1.785765
 31
0.0
  0
ARC
  8
4
  6
CONTINUOUS
 62
4
 10
2.56101007470976
 20
1.78576507470527
 30
0.0
 40
0.0999999252925095
 50
359.999957196999
 51
90.0000428158632
  0
ARC
  8
4
  6
CONTINUOUS
 62
4
 10
2.56332007470527
 20
0.847266925290237
 30
0.0
 40
0.0999999252925096
 50
269.999957196999
 51
4.28158632298055E-5
  0
LINE
  8
4
  6
CONTINUOUS
 62
4
 10
2.66332
 20
0.847267
 30
0.0
 11
2.66332
 21
1.154267
 31
0.0
  0
ARC
  8
4
  6
CONTINUOUS
 62
4
 10
2.56332007470976
 20
1.15426707470527
 30
0.0
 40
0.0999999252925096
 50
359.999957196999
 51
90.0000428158629
  0
ARC
  8
4
  6
CONTINUOUS
 62
4
 10
0.149721925285747
 20
1.15426707471874
 30
0.0
 40
0.0999999252835301
 50
89.9999572021441
 51
180.000042810718
  0
LINE
  8
4
  6
CONTINUOUS
 62
4
 10
0.049722
 20
1.154267
 30
0.0
 11
0.049722
 21
0.847267
 31
0.0
  0
ARC
  8
4
  6
CONTINUOUS
 62
4
 10
0.149721925272278
 20
0.847266925294727
 30
0.0
 40
0.09999992528353
 50
179.999957207289
 51
270.000042815863
  0
LINE
  8
4
  6
CONTINUOUS
 62
4
 10
0.149722
 20
0.747267
 30
0.0
 11
2.56332
 21
0.747267
 31
0.0
  0
LINE
  8
4
  6
CONTINUOUS
 62
4
 10
0.428222
 20
0.872267
 30
0.0
 11
2.421222
 21
0.872267
 31
0.0
  0
ARC
  8
4
  6
CONTINUOUS
 62
4
 10
2.42122199997692
 20
1.000767
 30
0.0
 40
0.1285
 50
270.000000002572
 51
89.9999999974277
  0
LINE
  8
4
  6
CONTINUOUS
 62
4
 10
2.421222
 20
1.129267
 30
0.0
 11
0.428222
 21
1.129267
 31
0.0
  0
ARC
  8
4
  6
CONTINUOUS
 62
4
 10
0.425912000011539
 20
1.632265
 30
0.0
 40
0.1285
 50
90.0000000025723
 51
269.999999997427
  0
ARC
  8
4
  6
CONTINUOUS
 62
4
 10
2.41891199997692
 20
1.632265
 30
0.0
 40
0.1285
 50
270.000000002572
 51
89.9999999974277
  0
LINE
  8
4
  6
CONTINUOUS
 62
4
 10
2.418912
 20
1.760765
 30
0.0
 11
0.425912
 21
1.760765
 31
0.0
  0
ARC
  8
6
  6
CONTINUOUS
 62
6
 10
1.93100920689967
 20
3.14331
 30
0.0
 40
0.0350000000000001
 50
180.000000005145
 51
1.53511459547513E-13
  0
ARC
  8
6
  6
CONTINUOUS
 62
6
 10
1.80600925660167
 20
2.333563
 30
0.0
 40
0.0350000000000001
 50
180.000000005145
 51
1.53511459547513E-13
  0
ARC
  8
9
  6
CONTINUOUS
 62
9
 10
1.43163297092136
 20
1.35927500865664
 30
0.0
 40
0.105008008656639
 50
270.000000018007
 51
2.95791521765013E-8
  0
ARC
  8
9
  6
CONTINUOUS
 62
9
 10
1.43163297092593
 20
1.32462412472175
 30
0.0
 40
0.0703571247217486
 50
180.00000001158
 51
270.000000023152
  0
ARC
  8
9
  6
CONTINUOUS
 62
9
 10
1.56953198339777
 20
1.27375699135279
 30
0.0
 40
0.10500800864721
 50
90.0000000077172
 51
180.000000009
  0
ARC
  8
9
  6
CONTINUOUS
 62
9
 10
1.56953198341197
 20
1.30840787527825
 30
0.0
 40
0.0703571247217485
 50
6.43494912041189E-9
 51
90.0000000180071
  0
ARC
  8
9
  6
CONTINUOUS
 62
9
 10
1.32726878389934
 20
1.59399801246374
 30
0.0
 40
0.0902330124637448
 50
270.000000012862
 51
2.44345477292498E-8
  0
ARC
  8
9
  6
CONTINUOUS
 62
9
 10
1.32726878389749
 20
1.57412212472175
 30
0.0
 40
0.0703571247217484
 50
180.000000006435
 51
270.000000018007
  0
ARC
  8
9
  6
CONTINUOUS
 62
9
 10
1.88217752808859
 20
1.93055009528664
 30
0.0
 40
0.105008008647209
 50
97.9999614824727
 51
187.999961483755
  0
ARC
  8
9
  6
CONTINUOUS
 62
9
 10
1.87735508020797
 20
1.96486376243626
 30
0.0
 40
0.0703571247217484
 50
7.9999614811903
 51
97.9999614927625
  0
ARC
  8
9
  6
CONTINUOUS
 62
9
 10
1.46478706266245
 20
2.33243468604276
 30
0.0
 40
0.0638490906907202
 50
359.000000010318
 51
89.0000000218906
  0
ARC
  8
9
  6
CONTINUOUS
 62
9
 10
1.46464301160444
 20
2.33243720045756
 30
0.0
 40
0.0639931636916402
 50
269.000000003891
 51
359.000000015463
  0
ARC
  8
9
  6
CONTINUOUS
 62
9
 10
1.62310155493
 20
2.74029710347833
 30
0.0
 40
0.10500800864721
 50
97.9999778496479
 51
187.99997785093
  0
ARC
  8
9
  6
CONTINUOUS
 62
9
 10
1.61827909724731
 20
2.77461076925036
 30
0.0
 40
0.0703571247217484
 50
7.99997784836563
 51
97.9999778599377
  0
LINE
  8
9
  6
CONTINUOUS
 62
9
 10
2.82761758644783
 20
3.75242202124755
 30
0.0
 11
2.678646
 21
3.74331
 31
0.0
  0
LINE
  8
9
  6
CONTINUOUS
 62
9
 10
2.74900312472174
 20
3.81366712473438
 30
0.0
 11
2.678646
 21
3.74331
 31
0.0
  0
ARC
  8
9
  6
CONTINUOUS
 62
9
 10
1.46478706266245
 20
3.14218168604276
 30
0.0
 40
0.0638490906907202
 50
359.000000010318
 51
89.0000000218904
  0
ARC
  8
9
  6
CONTINUOUS
 62
9
 10
1.46464301160444
 20
3.14218420045756
 30
0.0
 40
0.0639931636916405
 50
269.000000003891
 51
359.000000015463
  0
LINE
  8
9
  6
CONTINUOUS
 62
9
 10
0.41325
 20
3.8412439999866
 30
0.0
 11
0.5625
 21
3.841244
 31
0.0
  0
LINE
  8
9
  6
CONTINUOUS
 62
9
 10
0.562500000004467
 20
3.741744
 30
0.0
 11
0.5625
 21
3.841244
 31
0.0
  0
ARC
  8
9
  6
CONTINUOUS
 62
9
 10
2.03264321607635
 20
0.374241987544358
 30
0.0
 40
0.0902330124556423
 50
90.000000007717
 51
180.000000008999
  0
ARC
  8
9
  6
CONTINUOUS
 62
9
 10
2.03264321608988
 20
0.394117875278252
 30
0.0
 40
0.0703571247217485
 50
6.43479645378718E-9
 51
90.0000000180069
  0
ARC
  8
4
  6
CONTINUOUS
 62
4
 10
0.428221999988462
 20
1.00076699992715
 30
0.0
 40
0.128499999927147
 50
251.999999997942
 51
270.000000007717
  0
ARC
  8
4
  6
CONTINUOUS
 62
4
 10
0.428221999988461
 20
1.00076700000183
 30
0.0
 40
0.128499999998172
 50
90.0000000025722
 51
252.000000008232
  0
LINE
  8
4
  6
CONTINUOUS
 62
4
 10
2.56332
 20
1.254267
 30
0.0
 11
1.43163297095436
 21
1.254267
 31
0.0
  0
LINE
  8
4
  6
CONTINUOUS
 62
4
 10
1.43163297095436
 20
1.254267
 30
0.0
 11
0.149722
 21
1.254267
 31
0.0
  0
LINE
  8
4
  6
CONTINUOUS
 62
4
 10
0.147412
 20
1.378765
 30
0.0
 11
1.56953198340249
 21
1.378765
 31
0.0
  0
LINE
  8
4
  6
CONTINUOUS
 62
4
 10
1.56953198340249
 20
1.378765
 30
0.0
 11
2.56101
 21
1.378765
 31
0.0
  0
LINE
  8
4
  6
CONTINUOUS
 62
4
 10
0.425912
 20
1.503765
 30
0.0
 11
1.3272687839196
 21
1.503765
 31
0.0
  0
LINE
  8
4
  6
CONTINUOUS
 62
4
 10
1.3272687839196
 20
1.503765
 30
0.0
 11
2.418912
 21
1.503765
 31
0.0
  0
ARC
  8
4
  6
CONTINUOUS
 62
4
 10
1.85364607470527
 20
2.13356292529024
 30
0.0
 40
0.0999999252925094
 50
277.999961477328
 51
4.28158631280278E-5
  0
ARC
  8
4
  6
CONTINUOUS
 62
4
 10
1.85364607471425
 20
2.13356292516182
 30
0.0
 40
0.0999999251640957
 50
269.999957191855
 51
277.999961482473
  0
ARC
  8
6
  6
CONTINUOUS
 62
6
 10
1.80600925659852
 20
2.33356300000314
 30
0.0
 40
0.0349999999968573
 50
90.000000012862
 51
180.00000001029
  0
ARC
  8
6
  6
CONTINUOUS
 62
6
 10
1.80600925660481
 20
2.33356300000314
 30
0.0
 40
0.0349999999968573
 50
5.14457900281405E-9
 51
90.0000000231518
  0
ARC
  8
4
  6
CONTINUOUS
 62
4
 10
1.400146
 20
2.333563
 30
0.0
 40
0.1285
 50
359.000000000028
 51
90.0000000077176
  0
ARC
  8
4
  6
CONTINUOUS
 62
4
 10
1.40014600001154
 20
2.33356299998826
 30
0.0
 40
0.128499999988258
 50
269.999999997427
 51
359.000000005173
  0
ARC
  8
4
  6
CONTINUOUS
 62
4
 10
1.59457004296518
 20
2.94330992952003
 30
0.0
 40
0.0999999295221061
 50
277.999977844503
 51
22.726393841231
  0
ARC
  8
4
  6
CONTINUOUS
 62
4
 10
1.59457004297416
 20
2.94330992939161
 30
0.0
 40
0.0999999293936927
 50
269.999975377605
 51
277.999977849648
  0
ARC
  8
6
  6
CONTINUOUS
 62
6
 10
1.93100920689652
 20
3.14331000000314
 30
0.0
 40
0.0349999999968573
 50
90.000000012862
 51
180.00000001029
  0
ARC
  8
6
  6
CONTINUOUS
 62
6
 10
1.93100920690281
 20
3.14331000000314
 30
0.0
 40
0.0349999999968573
 50
5.14457900281405E-9
 51
90.0000000231518
  0
ARC
  8
4
  6
CONTINUOUS
 62
4
 10
1.400146
 20
3.14331
 30
0.0
 40
0.1285
 50
359.000000000028
 51
90.0000000077175
  0
ARC
  8
4
  6
CONTINUOUS
 62
4
 10
1.40014600001154
 20
3.14330999998826
 30
0.0
 40
0.128499999988258
 50
269.999999997427
 51
359.000000005173
  0
ARC
  8
4
  6
CONTINUOUS
 62
4
 10
0.940999999988462
 20
4.11799399997735
 30
0.0
 40
0.128499999977354
 50
215.999999998971
 51
270.000000007717
  0
ARC
  8
4
  6
CONTINUOUS
 62
4
 10
0.940999999988462
 20
4.11799400000588
 30
0.0
 40
0.128499999994121
 50
90.0000000025722
 51
216.000000009261
  0
LINE
  8
4
  6
CONTINUOUS
 62
4
 10
0.941
 20
0.464475
 30
0.0
 11
2.0326432160804
 21
0.464475
 31
0.0
  0
LINE
  8
4
  6
CONTINUOUS
 62
4
 10
2.0326432160804
 20
0.464475
 30
0.0
 11
2.934
 21
0.464475
 31
0.0
  0
LINE
  8
9
  6
CONTINUOUS
 62
9
 10
2.86488
 20
2.177393
 30
0.0
 11
2.74660012739058
 21
2.30996632908432
 31
0.0
  0
LINE
  8
9
  6
CONTINUOUS
 62
9
 10
2.86488
 20
2.177393
 30
0.0
 11
2.73230667091568
 21
2.05911312739058
 31
0.0
  0
LINE
  8
0
  6
CONTINUOUS
 62
0
 10
1.80600925659067
 20
2.368563
 30
0.0
 11
1.25691165917574
 21
1.57412212471385
 31
0.0
  0
LINE
  8
9
  6
CONTINUOUS
 62
9
 10
0.428221999982692
 20
1.129267
 30
0.0
 11
0.387571138251297
 21
0.987106717164112
 31
0.0
  0
LINE
  8
9
  6
CONTINUOUS
 62
9
 10
0.428221999982692
 20
1.129267
 30
0.0
 11
0.572441574438636
 21
1.0880272819633
 31
0.0
  0
LINE
  8
0
  6
CONTINUOUS
 62
0
 10
1.41750179636309
 20
1.59399801250223
 30
0.0
 11
0.572441574438636
 21
1.0880272819633
 31
0.0
  0
LINE
  8
0
  6
CONTINUOUS
 62
0
 10
0.387571138251297
 20
0.987106717164112
 30
0.0
 11
2.73230667091568
 21
2.05911312739058
 31
0.0
  0
LINE
  8
0
  6
CONTINUOUS
 62
0
 10
2.74660012739058
 20
2.30996632908432
 30
0.0
 11
0.562500000004467
 21
3.741744
 31
0.0
  0
LINE
  8
0
  6
CONTINUOUS
 62
0
 10
0.41325
 20
3.8412439999866
 30
0.0
 11
1.36127584620418
 21
1.32462412470753
 31
0.0
  0
LINE
  8
0
  6
CONTINUOUS
 62
0
 10
0.0474119999887756
 20
0.0592250000000001
 30
0.0
 11
2.10300034081163
 21
0.394117875286153
 31
0.0
  0
LINE
  8
0
  6
CONTINUOUS
 62
0
 10
1.46590138291944
 20
3.20602105220814
 30
0.0
 11
1.46352617690686
 21
2.26845378323607
 31
0.0
  0
LINE
  8
0
  6
CONTINUOUS
 62
0
 10
1.80600925659067
 20
2.368563
 30
0.0
 11
1.46590138291944
 21
2.39627405220814
 31
0.0
  0
LINE
  8
0
  6
CONTINUOUS
 62
0
 10
1.68795151505342
 20
2.78440256153584
 30
0.0
 11
1.7781914403389
 21
1.91593587500068
 31
0.0
  0
LINE
  8
0
  6
CONTINUOUS
 62
0
 10
1.51911547135503
 20
2.72568285348759
 30
0.0
 11
1.93100920688867
 21
3.17831
 31
0.0
  0
LINE
  8
0
  6
CONTINUOUS
 62
0
 10
1.93100920688867
 20
3.17831
 30
0.0
 11
2.74900312472174
 21
3.81366712473438
 31
0.0
  0
LINE
  8
9
  6
CONTINUOUS
 62
9
 10
0.941
 20
3.989494
 30
0.0
 11
1.07853651158147
 21
4.04359191140146
 31
0.0
  0
LINE
  8
9
  6
CONTINUOUS
 62
9
 10
0.941
 20
3.989494
 30
0.0
 11
0.886094374080168
 21
4.12908401483756
 31
0.0
  0
LINE
  8
0
  6
CONTINUOUS
 62
0
 10
1.46352617690684
 20
3.07820078323463
 30
0.0
 11
1.07853651158147
 21
4.04359191140146
 31
0.0
  0
LINE
  8
0
  6
CONTINUOUS
 62
0
 10
0.886094374080168
 20
4.12908401483756
 30
0.0
 11
1.94241020362071
 21
0.374241987530184
 31
0.0
  0
LINE
  8
0
  6
CONTINUOUS
 62
0
 10
1.53664097957799
 20
1.35927500871085
 30
0.0
 11
1.63988910813371
 21
1.30840787528615
 31
0.0
  0
LINE
  8
0
  6
CONTINUOUS
 62
0
 10
1.46452397475057
 20
1.2737569913363
 30
0.0
 11
1.94702750081122
 21
1.97465553481904
 31
0.0
  0
ENDSEC
  0
EOF
