  0
SECTION
  2
HEADER
  9
$ACADVER
  1
AC1003
  9
$EXTMIN
 10
0.0356469209619331
 20
2.93921331867442
  9
$EXTMAX
 10
5.42776469708075
 20
-0.0641784275019562
  9
$INSBASE
 10
2.73170580902134
 20
1.43751744558623
999
Created with OMAX Windows DXF File exporter 11/6/2002
  0
ENDSEC
  0
SECTION
  2
TABLES
  0
TABLE
  2
LAYER
 70
    10
  0
LAYER
  2
0
 70
     0
 62
     7
  6
CONTINUOUS
  0
LAYER
  2
1
 70
     0
 62
     7
  6
CONTINUOUS
  0
LAYER
  2
2
 70
     0
 62
     7
  6
CONTINUOUS
  0
LAYER
  2
3
 70
     0
 62
     7
  6
CONTINUOUS
  0
LAYER
  2
4
 70
     0
 62
     7
  6
CONTINUOUS
  0
LAYER
  2
5
 70
     0
 62
     7
  6
CONTINUOUS
  0
LAYER
  2
6
 70
     0
 62
     7
  6
CONTINUOUS
  0
LAYER
  2
7
 70
     0
 62
     7
  6
CONTINUOUS
  0
LAYER
  2
8
 70
     0
 62
     7
  6
CONTINUOUS
  0
LAYER
  2
9
 70
     0
 62
     7
  6
CONTINUOUS
  0
LAYER
  2
10
 70
     0
 62
     7
  6
CONTINUOUS
  0
ENDTAB
  0
ENDSEC
  0
SECTION
  2
ENTITIES
  0
ARC
  8
4
  6
CONTINUOUS
 62
4
 10
0.896741016989066
 20
0.856482135455899
 30
0.0
 40
0.128499903989336
 50
269.999957208574
 51
4.2827439042196E-5
  0
ARC
  8
4
  6
CONTINUOUS
 62
4
 10
0.89674092099567
 20
1.59948223146083
 30
0.0
 40
0.128500000000001
 50
1.28620995207448E-8
 51
180.000000007717
  0
ARC
  8
4
  6
CONTINUOUS
 62
4
 10
0.896740824956129
 20
0.856482135478976
 30
0.0
 40
0.128499903977797
 50
179.99995721372
 51
270.000042822294
  0
LINE
  8
4
  6
CONTINUOUS
 62
4
 10
1.67247892099567
 20
2.75372023148391
 30
0.0
 11
0.89674092099567
 21
1.97798223148391
 31
0.0
  0
LINE
  8
4
  6
CONTINUOUS
 62
4
 10
0.89674092099567
 20
1.97798223148391
 30
0.0
 11
0.12100192099567
 21
2.75372023148391
 31
0.0
  0
ARC
  8
4
  6
CONTINUOUS
 62
4
 10
0.0856466708757036
 20
2.71836515721292
 30
0.0
 40
0.0499997498784933
 50
44.999857521838
 51
179.999914911869
  0
LINE
  8
4
  6
CONTINUOUS
 62
4
 10
0.0356469209956698
 20
2.71836523148391
 30
0.0
 11
0.0356469209956698
 21
1.97798223148391
 31
0.0
  0
ARC
  8
4
  6
CONTINUOUS
 62
4
 10
0.28564673414831
 20
1.97798204470388
 30
0.0
 40
0.249999813186376
 50
179.99995721372
 51
270.000042822294
  0
LINE
  8
4
  6
CONTINUOUS
 62
4
 10
0.28564692099567
 20
1.72798223148391
 30
0.0
 11
0.31718592099567
 21
1.72798223148391
 31
0.0
  0
ARC
  8
4
  6
CONTINUOUS
 62
4
 10
0.317186107775691
 20
1.47798241824148
 30
0.0
 40
0.249999813231274
 50
359.999957198284
 51
90.0000428274394
  0
ARC
  8
4
  6
CONTINUOUS
 62
4
 10
0.817185734148311
 20
0.727982044703885
 30
0.0
 40
0.249999813186376
 50
179.99995721372
 51
270.000042822294
  0
LINE
  8
4
  6
CONTINUOUS
 62
4
 10
0.81718592099567
 20
0.477982231483906
 30
0.0
 11
0.97629492099567
 21
0.477982231483906
 31
0.0
  0
ARC
  8
4
  6
CONTINUOUS
 62
4
 10
0.97629510775325
 20
0.72798204465899
 30
0.0
 40
0.249999813208825
 50
269.999957208574
 51
4.28274390358349E-5
  0
ARC
  8
4
  6
CONTINUOUS
 62
4
 10
1.47629473421565
 20
1.47798241828637
 30
0.0
 40
0.249999813208825
 50
89.9999572034297
 51
180.000042822294
  0
LINE
  8
4
  6
CONTINUOUS
 62
4
 10
1.47629492099567
 20
1.72798223148391
 30
0.0
 11
1.50783392099567
 21
1.72798223148391
 31
0.0
  0
ARC
  8
4
  6
CONTINUOUS
 62
4
 10
1.50783410775325
 20
1.97798204465899
 30
0.0
 40
0.249999813208825
 50
269.999957208574
 51
4.28274390867238E-5
  0
LINE
  8
4
  6
CONTINUOUS
 62
4
 10
1.75783392099567
 20
1.97798223148391
 30
0.0
 11
1.75783392099567
 21
2.71836523148391
 31
0.0
  0
ARC
  8
4
  6
CONTINUOUS
 62
4
 10
1.70783417111882
 20
2.7183651572116
 30
0.0
 40
0.0499997498784933
 50
8.51205077490275E-5
 51
135.000142510539
  0
LINE
  8
4
  6
CONTINUOUS
 62
4
 10
0.95986792099567
 20
0.08451776851609
 30
0.0
 11
2.99742492099567
 21
0.08451776851609
 31
0.0
  0
LINE
  8
4
  6
CONTINUOUS
 62
4
 10
2.99742492099567
 20
0.08451776851609
 30
0.0
 11
2.99480892099567
 21
0.11481176851609
 31
0.0
  0
LINE
  8
4
  6
CONTINUOUS
 62
4
 10
2.99480892099567
 20
0.11481176851609
 30
0.0
 11
2.98668292099567
 21
0.14577476851609
 31
0.0
  0
LINE
  8
4
  6
CONTINUOUS
 62
4
 10
2.98668292099567
 20
0.14577476851609
 30
0.0
 11
2.97268092099567
 21
0.17716476851609
 31
0.0
  0
LINE
  8
4
  6
CONTINUOUS
 62
4
 10
2.97268092099567
 20
0.17716476851609
 30
0.0
 11
2.95251092099567
 21
0.20871076851609
 31
0.0
  0
LINE
  8
4
  6
CONTINUOUS
 62
4
 10
2.95251092099567
 20
0.20871076851609
 30
0.0
 11
2.92597692099567
 21
0.24011076851609
 31
0.0
  0
LINE
  8
4
  6
CONTINUOUS
 62
4
 10
2.92597692099567
 20
0.24011076851609
 30
0.0
 11
2.89299392099567
 21
0.27104276851609
 31
0.0
  0
LINE
  8
4
  6
CONTINUOUS
 62
4
 10
2.89299392099567
 20
0.27104276851609
 30
0.0
 11
2.80796992099567
 21
0.33016276851609
 31
0.0
  0
LINE
  8
4
  6
CONTINUOUS
 62
4
 10
2.80796992099567
 20
0.33016276851609
 30
0.0
 11
2.69936092099567
 21
0.38343976851609
 31
0.0
  0
LINE
  8
4
  6
CONTINUOUS
 62
4
 10
2.69936092099567
 20
0.38343976851609
 30
0.0
 11
2.57111892099567
 21
0.42857776851609
 31
0.0
  0
LINE
  8
4
  6
CONTINUOUS
 62
4
 10
2.57111892099567
 20
0.42857776851609
 30
0.0
 11
2.27864692099567
 21
0.48869776851609
 31
0.0
  0
LINE
  8
4
  6
CONTINUOUS
 62
4
 10
2.27864692099567
 20
0.48869776851609
 30
0.0
 11
2.27864692099567
 21
1.58451776851609
 31
0.0
  0
LINE
  8
4
  6
CONTINUOUS
 62
4
 10
2.27864692099567
 20
1.58451776851609
 30
0.0
 11
1.67864692099567
 21
1.58451776851609
 31
0.0
  0
LINE
  8
4
  6
CONTINUOUS
 62
4
 10
1.67864692099567
 20
1.58451776851609
 30
0.0
 11
1.67864692099567
 21
0.48869776851609
 31
0.0
  0
LINE
  8
4
  6
CONTINUOUS
 62
4
 10
1.67864692099567
 20
0.48869776851609
 30
0.0
 11
1.38617392099567
 21
0.42857776851609
 31
0.0
  0
LINE
  8
4
  6
CONTINUOUS
 62
4
 10
1.38617392099567
 20
0.42857776851609
 30
0.0
 11
1.25793192099567
 21
0.38343976851609
 31
0.0
  0
LINE
  8
4
  6
CONTINUOUS
 62
4
 10
1.25793192099567
 20
0.38343976851609
 30
0.0
 11
1.14932292099567
 21
0.33016276851609
 31
0.0
  0
LINE
  8
4
  6
CONTINUOUS
 62
4
 10
1.14932292099567
 20
0.33016276851609
 30
0.0
 11
1.06429992099567
 21
0.27104276851609
 31
0.0
  0
LINE
  8
4
  6
CONTINUOUS
 62
4
 10
1.06429992099567
 20
0.27104276851609
 30
0.0
 11
1.03131592099567
 21
0.24011076851609
 31
0.0
  0
LINE
  8
4
  6
CONTINUOUS
 62
4
 10
1.03131592099567
 20
0.24011076851609
 30
0.0
 11
1.00478192099567
 21
0.20871076851609
 31
0.0
  0
LINE
  8
4
  6
CONTINUOUS
 62
4
 10
1.00478192099567
 20
0.20871076851609
 30
0.0
 11
0.98461192099567
 21
0.17716476851609
 31
0.0
  0
LINE
  8
4
  6
CONTINUOUS
 62
4
 10
0.98461192099567
 20
0.17716476851609
 30
0.0
 11
0.97061092099567
 21
0.14577476851609
 31
0.0
  0
LINE
  8
4
  6
CONTINUOUS
 62
4
 10
0.97061092099567
 20
0.14577476851609
 30
0.0
 11
0.96248492099567
 21
0.11481176851609
 31
0.0
  0
LINE
  8
4
  6
CONTINUOUS
 62
4
 10
0.96248492099567
 20
0.11481176851609
 30
0.0
 11
0.95986792099567
 21
0.08451776851609
 31
0.0
  0
ARC
  8
4
  6
CONTINUOUS
 62
4
 10
1.9786470170006
 20
1.20601786453256
 30
0.0
 40
0.128499903989336
 50
359.999957187994
 51
90.0000428068594
  0
ARC
  8
4
  6
CONTINUOUS
 62
4
 10
1.97864692099567
 20
0.463017768539172
 30
0.0
 40
0.1285
 50
180.000000002573
 51
359.999999997427
  0
ARC
  8
4
  6
CONTINUOUS
 62
4
 10
1.97864682496767
 20
1.20601786453256
 30
0.0
 40
0.128499903977797
 50
89.9999571931403
 51
180.000042801714
  0
ARC
  8
4
  6
CONTINUOUS
 62
4
 10
3.33554992099567
 20
0.418982231495444
 30
0.0
 40
0.1285
 50
180.000000002572
 51
359.999999997427
  0
ARC
  8
4
  6
CONTINUOUS
 62
4
 10
3.33554992099567
 20
2.41198223146083
 30
0.0
 40
0.1285
 50
1.28620486318699E-8
 51
180.000000007717
  0
LINE
  8
4
  6
CONTINUOUS
 62
4
 10
3.58904992099567
 20
2.08479523148391
 30
0.0
 11
3.58904992099567
 21
0.140482231483906
 31
0.0
  0
ARC
  8
4
  6
CONTINUOUS
 62
4
 10
3.48904999569871
 20
0.140482156753939
 30
0.0
 40
0.0999999252835302
 50
269.999957208574
 51
4.28274391757793E-5
  0
LINE
  8
4
  6
CONTINUOUS
 62
4
 10
3.48904992099567
 20
0.0404822314839062
 30
0.0
 11
3.18204992099567
 21
0.0404822314839062
 31
0.0
  0
ARC
  8
4
  6
CONTINUOUS
 62
4
 10
3.18204984625673
 20
0.140482156771898
 30
0.0
 40
0.0999999252745506
 50
179.99995721372
 51
270.000042822294
  0
LINE
  8
4
  6
CONTINUOUS
 62
4
 10
3.08204992099567
 20
0.140482231483906
 30
0.0
 11
3.08204992099567
 21
2.08479523148391
 31
0.0
  0
ARC
  8
4
  6
CONTINUOUS
 62
4
 10
2.98204980217629
 20
2.08479588356813
 30
0.0
 40
0.100000118825975
 50
359.999626383702
 51
83.5612472403705
  0
LINE
  8
4
  6
CONTINUOUS
 62
4
 10
2.99326392099567
 20
2.18416523148391
 30
0.0
 11
2.56954492099567
 21
2.26727223148391
 31
0.0
  0
LINE
  8
4
  6
CONTINUOUS
 62
4
 10
2.56954492099567
 20
2.26727223148391
 30
0.0
 11
2.38079292099567
 21
2.33351023148391
 31
0.0
  0
LINE
  8
4
  6
CONTINUOUS
 62
4
 10
2.38079292099567
 20
2.33351023148391
 30
0.0
 11
2.21971792099567
 21
2.41344823148391
 31
0.0
  0
LINE
  8
4
  6
CONTINUOUS
 62
4
 10
2.21971792099567
 20
2.41344823148391
 30
0.0
 11
2.15175692099567
 21
2.45744423148391
 31
0.0
  0
LINE
  8
4
  6
CONTINUOUS
 62
4
 10
2.15175692099567
 20
2.45744423148391
 30
0.0
 11
2.09297392099567
 21
2.50342223148391
 31
0.0
  0
LINE
  8
4
  6
CONTINUOUS
 62
4
 10
2.09297392099567
 20
2.50342223148391
 30
0.0
 11
2.04369192099567
 21
2.55082423148391
 31
0.0
  0
LINE
  8
4
  6
CONTINUOUS
 62
4
 10
2.04369192099567
 20
2.55082423148391
 30
0.0
 11
2.00401992099567
 21
2.59908823148391
 31
0.0
  0
LINE
  8
4
  6
CONTINUOUS
 62
4
 10
2.00401992099567
 20
2.59908823148391
 30
0.0
 11
1.97386092099567
 21
2.64766923148391
 31
0.0
  0
LINE
  8
4
  6
CONTINUOUS
 62
4
 10
1.97386092099567
 20
2.64766923148391
 30
0.0
 11
1.95293392099567
 21
2.69606023148391
 31
0.0
  0
LINE
  8
4
  6
CONTINUOUS
 62
4
 10
1.95293392099567
 20
2.69606023148391
 30
0.0
 11
1.94079992099567
 21
2.74379923148391
 31
0.0
  0
LINE
  8
4
  6
CONTINUOUS
 62
4
 10
1.94079992099567
 20
2.74379923148391
 30
0.0
 11
1.93689792099567
 21
2.79048223148391
 31
0.0
  0
LINE
  8
4
  6
CONTINUOUS
 62
4
 10
1.93689792099567
 20
2.79048223148391
 30
0.0
 11
4.73420292099567
 21
2.79048223148391
 31
0.0
  0
LINE
  8
4
  6
CONTINUOUS
 62
4
 10
4.73420292099567
 20
2.79048223148391
 30
0.0
 11
4.73029992099567
 21
2.74379923148391
 31
0.0
  0
LINE
  8
4
  6
CONTINUOUS
 62
4
 10
4.73029992099567
 20
2.74379923148391
 30
0.0
 11
4.71816692099567
 21
2.69606023148391
 31
0.0
  0
LINE
  8
4
  6
CONTINUOUS
 62
4
 10
4.71816692099567
 20
2.69606023148391
 30
0.0
 11
4.69723992099567
 21
2.64766923148391
 31
0.0
  0
LINE
  8
4
  6
CONTINUOUS
 62
4
 10
4.69723992099567
 20
2.64766923148391
 30
0.0
 11
4.66708092099567
 21
2.59908823148391
 31
0.0
  0
LINE
  8
4
  6
CONTINUOUS
 62
4
 10
4.66708092099567
 20
2.59908823148391
 30
0.0
 11
4.62740892099567
 21
2.55082423148391
 31
0.0
  0
LINE
  8
4
  6
CONTINUOUS
 62
4
 10
4.62740892099567
 20
2.55082423148391
 30
0.0
 11
4.57812692099567
 21
2.50342223148391
 31
0.0
  0
LINE
  8
4
  6
CONTINUOUS
 62
4
 10
4.57812692099567
 20
2.50342223148391
 30
0.0
 11
4.51934292099567
 21
2.45744423148391
 31
0.0
  0
LINE
  8
4
  6
CONTINUOUS
 62
4
 10
4.51934292099567
 20
2.45744423148391
 30
0.0
 11
4.45138292099567
 21
2.41344823148391
 31
0.0
  0
LINE
  8
4
  6
CONTINUOUS
 62
4
 10
4.45138292099567
 20
2.41344823148391
 30
0.0
 11
4.29030792099567
 21
2.33351023148391
 31
0.0
  0
LINE
  8
4
  6
CONTINUOUS
 62
4
 10
4.29030792099567
 20
2.33351023148391
 30
0.0
 11
4.10155592099567
 21
2.26727223148391
 31
0.0
  0
LINE
  8
4
  6
CONTINUOUS
 62
4
 10
4.10155592099567
 20
2.26727223148391
 30
0.0
 11
3.67783692099567
 21
2.18416523148391
 31
0.0
  0
ARC
  8
4
  6
CONTINUOUS
 62
4
 10
3.68905053981393
 20
2.08479532399046
 30
0.0
 40
0.100000618813842
 50
96.4384321659308
 51
180.000053012308
  0
ARC
  8
4
  6
CONTINUOUS
 62
4
 10
4.55887901698907
 20
0.418982135455898
 30
0.0
 40
0.128499903989336
 50
269.999957208574
 51
4.2827439042196E-5
  0
LINE
  8
4
  6
CONTINUOUS
 62
4
 10
4.68737892099567
 20
0.418982231483906
 30
0.0
 11
4.68737892099567
 21
1.16198223148391
 31
0.0
  0
LINE
  8
4
  6
CONTINUOUS
 62
4
 10
4.43037892099567
 20
1.16198223148391
 30
0.0
 11
4.43037892099567
 21
0.418982231483906
 31
0.0
  0
ARC
  8
4
  6
CONTINUOUS
 62
4
 10
4.55887882495613
 20
0.418982135478976
 30
0.0
 40
0.128499903977797
 50
179.99995721372
 51
270.000042822293
  0
LINE
  8
4
  6
CONTINUOUS
 62
4
 10
4.25887892099567
 20
0.725030231483906
 30
0.0
 11
4.25887892099567
 21
0.0404822314839062
 31
0.0
  0
LINE
  8
4
  6
CONTINUOUS
 62
4
 10
4.25887892099567
 20
0.0404822314839062
 30
0.0
 11
4.85887892099567
 21
0.040482231483906
 31
0.0
  0
LINE
  8
4
  6
CONTINUOUS
 62
4
 10
4.85887892099567
 20
0.040482231483906
 30
0.0
 11
4.85887892099567
 21
0.725030231483906
 31
0.0
  0
ARC
  8
4
  6
CONTINUOUS
 62
4
 10
4.55887925577069
 20
1.54048232130947
 30
0.0
 40
0.868885441310068
 50
290.198249555097
 51
45.0000114317481
  0
LINE
  8
4
  6
CONTINUOUS
 62
4
 10
5.17327392099567
 20
2.15487723148391
 30
0.0
 11
4.55887892099567
 21
1.54048223148391
 31
0.0
  0
LINE
  8
4
  6
CONTINUOUS
 62
4
 10
4.55887892099567
 20
1.54048223148391
 30
0.0
 11
3.94448392099567
 21
2.15487723148391
 31
0.0
  0
ARC
  8
4
  6
CONTINUOUS
 62
4
 10
4.55887858607607
 20
1.5404823215359
 30
0.0
 40
0.868885441260172
 50
134.999988602936
 51
249.801750469296
  0
ARC
  8
4
  6
CONTINUOUS
 62
4
 10
4.55887892116109
 20
1.16198223148969
 30
0.0
 40
0.128499999834989
 50
359.999999999988
 51
8.00000002034121
  0
LINE
  8
4
  6
CONTINUOUS
 62
4
 10
3.46404992099567
 20
0.418982231483906
 30
0.0
 11
3.46404992099567
 21
1.60076112595627
 31
0.0
  0
LINE
  8
4
  6
CONTINUOUS
 62
4
 10
3.46404992099567
 20
1.60076112595627
 30
0.0
 11
3.46404992099567
 21
2.41198223148391
 31
0.0
  0
LINE
  8
4
  6
CONTINUOUS
 62
4
 10
2.10714692099567
 20
1.20601776851609
 30
0.0
 11
2.10714692099567
 21
0.924882633380959
 31
0.0
  0
LINE
  8
4
  6
CONTINUOUS
 62
4
 10
2.10714692099567
 20
0.924882633380959
 30
0.0
 11
2.10714692099567
 21
0.46301776851609
 31
0.0
  0
LINE
  8
4
  6
CONTINUOUS
 62
4
 10
1.22629492099567
 20
0.727982231483906
 30
0.0
 11
1.22629492099567
 21
1.21798223148391
 31
0.0
  0
LINE
  8
4
  6
CONTINUOUS
 62
4
 10
1.22629492099567
 20
1.21798223148391
 30
0.0
 11
1.22629492099567
 21
1.47798223148391
 31
0.0
  0
LINE
  8
4
  6
CONTINUOUS
 62
4
 10
1.02524092099567
 20
0.856482231483906
 30
0.0
 11
1.02524092099567
 21
1.33842817742985
 31
0.0
  0
LINE
  8
4
  6
CONTINUOUS
 62
4
 10
1.02524092099567
 20
1.33842817742985
 30
0.0
 11
1.02524092099567
 21
1.59948223148391
 31
0.0
  0
ARC
  8
9
  6
CONTINUOUS
 62
9
 10
0.462177912339032
 20
1.15798223146505
 30
0.0
 40
0.105008008656639
 50
270.000000009006
 51
2.05796073164569E-8
  0
ARC
  8
9
  6
CONTINUOUS
 62
9
 10
0.496828796273922
 20
1.15798223147759
 30
0.0
 40
0.0703571247217484
 50
1.54343158693942E-8
 51
90.0000000270068
  0
ARC
  8
9
  6
CONTINUOUS
 62
9
 10
0.858473933451313
 20
1.13761736665956
 30
0.0
 40
0.0902330124556423
 50
90.0000000244419
 51
180.000000025724
  0
ARC
  8
9
  6
CONTINUOUS
 62
9
 10
0.838598045717419
 20
1.137617366638
 30
0.0
 40
0.0703571247217485
 50
180.000000015435
 51
270.000000016717
  0
LINE
  8
9
  6
CONTINUOUS
 62
9
 10
0.95986792099567
 20
0.08451776851609
 30
0.0
 11
0.947022540901536
 21
-0.0641784275019562
 31
0.0
  0
LINE
  8
9
  6
CONTINUOUS
 62
9
 10
0.95986792099567
 20
0.08451776851609
 30
0.0
 11
0.86036792099567
 21
0.0845177685071554
 31
0.0
  0
ARC
  8
9
  6
CONTINUOUS
 62
9
 10
1.94037993345131
 20
0.703990741521474
 30
0.0
 40
0.0902330124556426
 50
90.000000019297
 51
180.000000020579
  0
ARC
  8
9
  6
CONTINUOUS
 62
9
 10
1.92050404571742
 20
0.703990741501699
 30
0.0
 40
0.0703571247217487
 50
180.00000001029
 51
270.000000011572
  0
LINE
  8
9
  6
CONTINUOUS
 62
9
 10
4.73420292099567
 20
2.79048223148391
 30
0.0
 11
4.74663779948842
 21
2.93921331867442
 31
0.0
  0
LINE
  8
9
  6
CONTINUOUS
 62
9
 10
4.73420292099567
 20
2.79048223148391
 30
0.0
 11
4.83370292099567
 21
2.79048223150178
 31
0.0
  0
ARC
  8
9
  6
CONTINUOUS
 62
9
 10
3.29728293345131
 20
1.55068574911236
 30
0.0
 40
0.0902330124556424
 50
90.0000000244421
 51
180.000000025724
  0
ARC
  8
9
  6
CONTINUOUS
 62
9
 10
3.27740704571742
 20
1.5506857490908
 30
0.0
 40
0.0703571247217489
 50
180.000000015435
 51
270.000000016717
  0
ARC
  8
9
  6
CONTINUOUS
 62
9
 10
4.4964125813029
 20
1.18131879372511
 30
0.0
 40
0.0631092802152366
 50
72.8000000179663
 51
162.800000029539
  0
ARC
  8
9
  6
CONTINUOUS
 62
9
 10
4.50333629032898
 20
1.17917554774932
 30
0.0
 40
0.0703571247217488
 50
162.800000019249
 51
252.800000020531
  0
LINE
  8
0
  6
CONTINUOUS
 62
0
 10
4.51507450348654
 20
1.24160572356498
 30
0.0
 11
0.0356469209620033
 21
-0.0641784275019562
 31
0.0
  0
LINE
  8
0
  6
CONTINUOUS
 62
0
 10
0.46217791235554
 20
1.05297422281078
 30
0.0
 11
0.838598045737947
 21
1.0672602419052
 31
0.0
  0
LINE
  8
4
  6
CONTINUOUS
 62
4
 10
0.56718592099567
 20
1.15798223148391
 30
0.0
 11
0.56718592099567
 21
0.727982231483906
 31
0.0
  0
LINE
  8
4
  6
CONTINUOUS
 62
4
 10
0.56718592099567
 20
1.47798223148391
 30
0.0
 11
0.56718592099567
 21
1.15798223148391
 31
0.0
  0
LINE
  8
4
  6
CONTINUOUS
 62
4
 10
0.76824092099567
 20
1.13761736661904
 30
0.0
 11
0.76824092099567
 21
0.856482231483906
 31
0.0
  0
LINE
  8
4
  6
CONTINUOUS
 62
4
 10
0.76824092099567
 20
1.59948223148391
 30
0.0
 11
0.76824092099567
 21
1.13761736661904
 31
0.0
  0
LINE
  8
4
  6
CONTINUOUS
 62
4
 10
1.85014692099567
 20
0.703990741489064
 30
0.0
 11
1.85014692099567
 21
1.20601776851609
 31
0.0
  0
LINE
  8
4
  6
CONTINUOUS
 62
4
 10
1.85014692099567
 20
0.46301776851609
 30
0.0
 11
1.85014692099567
 21
0.703990741489064
 31
0.0
  0
LINE
  8
4
  6
CONTINUOUS
 62
4
 10
3.20704992099567
 20
1.55068574907185
 30
0.0
 11
3.20704992099567
 21
0.418982231483906
 31
0.0
  0
LINE
  8
4
  6
CONTINUOUS
 62
4
 10
3.20704992099567
 20
2.41198223148391
 30
0.0
 11
3.20704992099567
 21
1.55068574907185
 31
0.0
  0
ARC
  8
4
  6
CONTINUOUS
 62
4
 10
4.55887892091978
 20
1.16198223149548
 30
0.0
 40
0.128499999923703
 50
162.800000013367
 51
180.000000012875
  0
ARC
  8
4
  6
CONTINUOUS
 62
4
 10
4.55887892099702
 20
1.16198223149572
 30
0.0
 40
0.128499999997421
 50
8.00000000750138
 51
162.800000023657
  0
LINE
  8
0
  6
CONTINUOUS
 62
0
 10
0.85847393341282
 20
1.2278503791152
 30
0.0
 11
1.92050404573163
 21
0.633633616779951
 31
0.0
  0
LINE
  8
0
  6
CONTINUOUS
 62
0
 10
0.86036792099567
 20
0.0845177685071554
 30
0.0
 11
0.496828796240758
 21
1.22833935619934
 31
0.0
  0
LINE
  8
0
  6
CONTINUOUS
 62
0
 10
4.74663779948842
 20
2.93921331867442
 30
0.0
 11
0.947022540901536
 21
-0.0641784275019562
 31
0.0
  0
LINE
  8
9
  6
CONTINUOUS
 62
9
 10
5.2536656533449
 20
2.21435133798633
 30
0.0
 11
5.17327392081021
 21
2.15487723151913
 31
0.0
  0
LINE
  8
9
  6
CONTINUOUS
 62
9
 10
5.08406276110941
 20
2.27546483032115
 30
0.0
 11
5.17327392081021
 21
2.15487723151913
 31
0.0
  0
LINE
  8
0
  6
CONTINUOUS
 62
0
 10
5.08406276110941
 20
2.27546483032115
 30
0.0
 11
4.83370292099567
 21
2.79048223150178
 31
0.0
  0
LINE
  8
0
  6
CONTINUOUS
 62
0
 10
4.48253112219489
 20
1.11196490887403
 30
0.0
 11
3.29728293341282
 21
1.640918761568
 31
0.0
  0
LINE
  8
0
  6
CONTINUOUS
 62
0
 10
1.94037993342092
 20
0.794223753977117
 30
0.0
 11
3.27740704573795
 21
1.48032862436905
 31
0.0
  0
ENDSEC
  0
EOF
