  0
SECTION
  2
HEADER
  9
$ACADVER
  1
AC1003
  9
$EXTMIN
 10
-0.14925
 20
0.64925
  9
$EXTMAX
 10
11.8745
 20
0
  9
$INSBASE
 10
5.862625
 20
0.324625
999
Created with OMAX Windows DXF File exporter 11/11/2002
  0
ENDSEC
  0
SECTION
  2
TABLES
  0
TABLE
  2
LAYER
 70
    10
  0
LAYER
  2
0
 70
     0
 62
     7
  6
CONTINUOUS
  0
LAYER
  2
1
 70
     0
 62
     7
  6
CONTINUOUS
  0
LAYER
  2
2
 70
     0
 62
     7
  6
CONTINUOUS
  0
LAYER
  2
3
 70
     0
 62
     7
  6
CONTINUOUS
  0
LAYER
  2
4
 70
     0
 62
     7
  6
CONTINUOUS
  0
LAYER
  2
5
 70
     0
 62
     7
  6
CONTINUOUS
  0
LAYER
  2
6
 70
     0
 62
     7
  6
CONTINUOUS
  0
LAYER
  2
7
 70
     0
 62
     7
  6
CONTINUOUS
  0
LAYER
  2
8
 70
     0
 62
     7
  6
CONTINUOUS
  0
LAYER
  2
9
 70
     0
 62
     7
  6
CONTINUOUS
  0
LAYER
  2
10
 70
     0
 62
     7
  6
CONTINUOUS
  0
ENDTAB
  0
ENDSEC
  0
SECTION
  2
ENTITIES
  0
LINE
  8
3
  6
CONTINUOUS
 62
3
 10
9.275
 20
0.5
 30
0.0
 11
9.275
 21
0
 31
0.0
  0
LINE
  8
3
  6
CONTINUOUS
 62
3
 10
5.375
 20
0.5
 30
0.0
 11
9.275
 21
0.5
 31
0.0
  0
LINE
  8
3
  6
CONTINUOUS
 62
3
 10
5.375
 20
0
 30
0.0
 11
5.375
 21
0.5
 31
0.0
  0
ARC
  8
3
  6
CONTINUOUS
 62
3
 10
8.825
 20
0.250000000000001
 30
0.0
 40
0.128499999999999
 50
180.000000005145
 51
1.53511459547513E-13
  0
ARC
  8
3
  6
CONTINUOUS
 62
3
 10
9.825
 20
0.250000000000001
 30
0.0
 40
0.128500000000001
 50
180.000000005145
 51
1.53511459547513E-13
  0
ARC
  8
3
  6
CONTINUOUS
 62
3
 10
11.325
 20
0.250000000000001
 30
0.0
 40
0.128500000000001
 50
180.000000005145
 51
1.53511459547513E-13
  0
LINE
  8
3
  6
CONTINUOUS
 62
3
 10
11.775
 20
0
 30
0.0
 11
9.375
 21
0
 31
0.0
  0
LINE
  8
3
  6
CONTINUOUS
 62
3
 10
11.775
 20
0.5
 30
0.0
 11
11.775
 21
0
 31
0.0
  0
LINE
  8
3
  6
CONTINUOUS
 62
3
 10
9.375
 20
0.5
 30
0.0
 11
11.775
 21
0.5
 31
0.0
  0
LINE
  8
3
  6
CONTINUOUS
 62
3
 10
9.375
 20
0
 30
0.0
 11
9.375
 21
0.5
 31
0.0
  0
LINE
  8
3
  6
CONTINUOUS
 62
3
 10
5.27
 20
0
 30
0.0
 11
0
 21
0
 31
0.0
  0
LINE
  8
3
  6
CONTINUOUS
 62
3
 10
5.27
 20
0.5
 30
0.0
 11
5.27
 21
0
 31
0.0
  0
LINE
  8
3
  6
CONTINUOUS
 62
3
 10
0
 20
0.5
 30
0.0
 11
5.27
 21
0.5
 31
0.0
  0
LINE
  8
3
  6
CONTINUOUS
 62
3
 10
0
 20
0
 30
0.0
 11
0
 21
0.5
 31
0.0
  0
ARC
  8
3
  6
CONTINUOUS
 62
3
 10
4.82
 20
0.250000000000001
 30
0.0
 40
0.1285
 50
180.000000005145
 51
1.53511459547513E-13
  0
ARC
  8
3
  6
CONTINUOUS
 62
3
 10
3.32
 20
0.250000000000001
 30
0.0
 40
0.1285
 50
180.000000005145
 51
1.53511459547513E-13
  0
ARC
  8
3
  6
CONTINUOUS
 62
3
 10
7.325
 20
0.250000000000001
 30
0.0
 40
0.1285
 50
180.000000005145
 51
1.53511459547513E-13
  0
ARC
  8
3
  6
CONTINUOUS
 62
3
 10
5.825
 20
0.250000000000001
 30
0.0
 40
0.1285
 50
180.000000005145
 51
1.53511459547513E-13
  0
ARC
  8
3
  6
CONTINUOUS
 62
3
 10
0.45
 20
0.250000000000001
 30
0.0
 40
0.1285
 50
180.000000005145
 51
1.53511459547513E-13
  0
ARC
  8
3
  6
CONTINUOUS
 62
3
 10
1.95
 20
0.250000000000001
 30
0.0
 40
0.1285
 50
180.000000005145
 51
1.53511459547513E-13
  0
LINE
  8
3
  6
CONTINUOUS
 62
3
 10
5.375
 20
0
 30
0.0
 11
9.275
 21
0
 31
0.0
  0
LINE
  8
9
  6
CONTINUOUS
 62
9
 10
-0.14925
 20
0.499999999986598
 30
0.0
 11
0
 21
0.5
 31
0.0
  0
LINE
  8
9
  6
CONTINUOUS
 62
9
 10
-1.34019862570812E-11
 20
0.5995
 30
0.0
 11
0
 21
0.5
 31
0.0
  0
LINE
  8
9
  6
CONTINUOUS
 62
9
 10
0.453224729885241
 20
0.261128112651133
 30
0.0
 11
0.346041316214681
 21
0.325530404908381
 31
0.0
  0
LINE
  8
9
  6
CONTINUOUS
 62
9
 10
0.421134919460745
 20
0.260252531539814
 30
0.0
 11
0.346041316214681
 21
0.325530404908381
 31
0.0
  0
LINE
  8
9
  6
CONTINUOUS
 62
9
 10
1.94921888901901
 20
0.261674439830481
 30
0.0
 11
1.82778923765215
 21
0.289708683765109
 31
0.0
  0
LINE
  8
9
  6
CONTINUOUS
 62
9
 10
1.9193794705786
 20
0.250830936499105
 30
0.0
 11
1.82778923765215
 21
0.289708683765109
 31
0.0
  0
LINE
  8
9
  6
CONTINUOUS
 62
9
 10
3.31921888901901
 20
0.261674439830481
 30
0.0
 11
3.19778923765215
 21
0.289708683765109
 31
0.0
  0
LINE
  8
9
  6
CONTINUOUS
 62
9
 10
3.2893794705786
 20
0.250830936499105
 30
0.0
 11
3.19778923765215
 21
0.289708683765109
 31
0.0
  0
LINE
  8
9
  6
CONTINUOUS
 62
9
 10
4.81921888901901
 20
0.261674439830481
 30
0.0
 11
4.69778923765215
 21
0.289708683765109
 31
0.0
  0
LINE
  8
9
  6
CONTINUOUS
 62
9
 10
4.7893794705786
 20
0.250830936499105
 30
0.0
 11
4.69778923765215
 21
0.289708683765109
 31
0.0
  0
LINE
  8
9
  6
CONTINUOUS
 62
9
 10
9.2749999999799
 20
0.64925
 30
0.0
 11
9.275
 21
0.5
 31
0.0
  0
LINE
  8
9
  6
CONTINUOUS
 62
9
 10
9.3745
 20
0.500000000017869
 30
0.0
 11
9.275
 21
0.5
 31
0.0
  0
LINE
  8
9
  6
CONTINUOUS
 62
9
 10
11.7749999999799
 20
0.64925
 30
0.0
 11
11.775
 21
0.5
 31
0.0
  0
LINE
  8
9
  6
CONTINUOUS
 62
9
 10
11.8745
 20
0.500000000017869
 30
0.0
 11
11.775
 21
0.5
 31
0.0
  0
LINE
  8
9
  6
CONTINUOUS
 62
9
 10
11.3363444286426
 20
0.247135280381608
 30
0.0
 11
11.4005304049037
 21
0.353958683788711
 31
0.0
  0
LINE
  8
9
  6
CONTINUOUS
 62
9
 10
11.3352525315385
 20
0.278865080539716
 30
0.0
 11
11.4005304049037
 21
0.353958683788711
 31
0.0
  0
LINE
  8
9
  6
CONTINUOUS
 62
9
 10
9.83249399561989
 20
0.241014305292903
 30
0.0
 11
9.94721076233715
 21
0.289708683798032
 31
0.0
  0
LINE
  8
9
  6
CONTINUOUS
 62
9
 10
9.85026094089719
 20
0.26732605386408
 30
0.0
 11
9.94721076233715
 21
0.289708683798032
 31
0.0
  0
LINE
  8
9
  6
CONTINUOUS
 62
9
 10
8.83249399561989
 20
0.241014305292902
 30
0.0
 11
8.94721076233715
 21
0.289708683798031
 31
0.0
  0
LINE
  8
9
  6
CONTINUOUS
 62
9
 10
8.85026094089719
 20
0.26732605386408
 30
0.0
 11
8.94721076233715
 21
0.289708683798031
 31
0.0
  0
LINE
  8
9
  6
CONTINUOUS
 62
9
 10
7.3324939956199
 20
0.241014305292903
 30
0.0
 11
7.44721076233715
 21
0.289708683798031
 31
0.0
  0
LINE
  8
9
  6
CONTINUOUS
 62
9
 10
7.35026094089719
 20
0.267326053864081
 30
0.0
 11
7.44721076233715
 21
0.289708683798031
 31
0.0
  0
LINE
  8
9
  6
CONTINUOUS
 62
9
 10
5.8324939956199
 20
0.241014305292903
 30
0.0
 11
5.94721076233715
 21
0.289708683798031
 31
0.0
  0
LINE
  8
9
  6
CONTINUOUS
 62
9
 10
5.85026094089719
 20
0.267326053864081
 30
0.0
 11
5.94721076233715
 21
0.289708683798031
 31
0.0
  0
LINE
  8
0
  6
CONTINUOUS
 62
0
 10
-0.14925
 20
0
 30
0.0
 11
5.8324939956199
 21
0.241014305292903
 31
0.0
  0
LINE
  8
0
  6
CONTINUOUS
 62
0
 10
5.85026094089719
 20
0.267326053864081
 30
0.0
 11
7.3324939956199
 21
0.241014305292903
 31
0.0
  0
LINE
  8
0
  6
CONTINUOUS
 62
0
 10
7.35026094089719
 20
0.267326053864081
 30
0.0
 11
8.83249399561989
 21
0.241014305292902
 31
0.0
  0
LINE
  8
0
  6
CONTINUOUS
 62
0
 10
8.85026094089719
 20
0.26732605386408
 30
0.0
 11
9.83249399561989
 21
0.241014305292903
 31
0.0
  0
LINE
  8
0
  6
CONTINUOUS
 62
0
 10
9.85026094089719
 20
0.26732605386408
 30
0.0
 11
11.3363444286426
 21
0.247135280381608
 31
0.0
  0
LINE
  8
0
  6
CONTINUOUS
 62
0
 10
11.3352525315385
 20
0.278865080539716
 30
0.0
 11
11.7749999999799
 21
0.64925
 31
0.0
  0
LINE
  8
0
  6
CONTINUOUS
 62
0
 10
11.8745
 20
0.500000000017869
 30
0.0
 11
9.2749999999799
 21
0.64925
 31
0.0
  0
LINE
  8
0
  6
CONTINUOUS
 62
0
 10
9.3745
 20
0.500000000017869
 30
0.0
 11
4.81921888901901
 21
0.261674439830481
 31
0.0
  0
LINE
  8
0
  6
CONTINUOUS
 62
0
 10
4.7893794705786
 20
0.250830936499105
 30
0.0
 11
3.31921888901901
 21
0.261674439830481
 31
0.0
  0
LINE
  8
0
  6
CONTINUOUS
 62
0
 10
3.2893794705786
 20
0.250830936499105
 30
0.0
 11
1.94921888901901
 21
0.261674439830481
 31
0.0
  0
LINE
  8
0
  6
CONTINUOUS
 62
0
 10
1.9193794705786
 20
0.250830936499105
 30
0.0
 11
0.453224729885241
 21
0.261128112651133
 31
0.0
  0
LINE
  8
0
  6
CONTINUOUS
 62
0
 10
0.421134919460745
 20
0.260252531539814
 30
0.0
 11
-0.14925
 21
0.499999999986598
 31
0.0
  0
ARC
  8
3
  6
CONTINUOUS
 62
3
 10
0.449999999964487
 20
0.250000000011538
 30
0.0
 40
0.128499999964487
 50
144.000000011319
 51
180.00000001029
  0
ARC
  8
3
  6
CONTINUOUS
 62
3
 10
0.450000000003749
 20
0.250000000011538
 30
0.0
 40
0.128499999996251
 50
5.14506965306984E-9
 51
144.000000021609
  0
ARC
  8
3
  6
CONTINUOUS
 62
3
 10
1.94999999992715
 20
0.250000000011538
 30
0.0
 40
0.128499999927147
 50
162.000000010804
 51
180.00000001029
  0
ARC
  8
3
  6
CONTINUOUS
 62
3
 10
1.95000000000183
 20
0.250000000011538
 30
0.0
 40
0.128499999998172
 50
5.14506965306984E-9
 51
162.000000021094
  0
ARC
  8
3
  6
CONTINUOUS
 62
3
 10
3.31999999992715
 20
0.250000000011539
 30
0.0
 40
0.128499999927147
 50
162.000000010804
 51
180.00000001029
  0
ARC
  8
3
  6
CONTINUOUS
 62
3
 10
3.32000000000183
 20
0.250000000011538
 30
0.0
 40
0.128499999998172
 50
5.14512054194474E-9
 51
162.000000021094
  0
ARC
  8
3
  6
CONTINUOUS
 62
3
 10
4.81999999992715
 20
0.250000000011539
 30
0.0
 40
0.128499999927147
 50
162.000000010804
 51
180.00000001029
  0
ARC
  8
3
  6
CONTINUOUS
 62
3
 10
4.82000000000183
 20
0.250000000011538
 30
0.0
 40
0.128499999998172
 50
5.14512054194474E-9
 51
162.000000021094
  0
ARC
  8
3
  6
CONTINUOUS
 62
3
 10
11.3249999999941
 20
0.250000000011538
 30
0.0
 40
0.128499999994122
 50
54.0000000138913
 51
180.00000001029
  0
ARC
  8
3
  6
CONTINUOUS
 62
3
 10
11.3250000000226
 20
0.250000000011539
 30
0.0
 40
0.128499999977355
 50
5.14501876419493E-9
 51
54.0000000241814
  0
ARC
  8
3
  6
CONTINUOUS
 62
3
 10
9.82499999999817
 20
0.250000000011538
 30
0.0
 40
0.128499999998173
 50
18.0000000149202
 51
180.00000001029
  0
ARC
  8
3
  6
CONTINUOUS
 62
3
 10
9.82500000007285
 20
0.250000000011541
 30
0.0
 40
0.128499999927148
 50
5.1445098754459E-9
 51
18.0000000252098
  0
ARC
  8
3
  6
CONTINUOUS
 62
3
 10
8.82499999999817
 20
0.250000000011538
 30
0.0
 40
0.128499999998172
 50
18.0000000149202
 51
180.00000001029
  0
ARC
  8
3
  6
CONTINUOUS
 62
3
 10
8.82500000007285
 20
0.25000000001154
 30
0.0
 40
0.128499999927146
 50
5.1446116531957E-9
 51
18.0000000252099
  0
ARC
  8
3
  6
CONTINUOUS
 62
3
 10
7.32499999999817
 20
0.250000000011538
 30
0.0
 40
0.128499999998172
 50
18.0000000149201
 51
180.00000001029
  0
ARC
  8
3
  6
CONTINUOUS
 62
3
 10
7.32500000007285
 20
0.25000000001154
 30
0.0
 40
0.128499999927147
 50
5.14466254207061E-9
 51
18.0000000252098
  0
ARC
  8
3
  6
CONTINUOUS
 62
3
 10
5.82499999999817
 20
0.250000000011538
 30
0.0
 40
0.128499999998172
 50
18.0000000149201
 51
180.00000001029
  0
ARC
  8
3
  6
CONTINUOUS
 62
3
 10
5.82500000007285
 20
0.25000000001154
 30
0.0
 40
0.128499999927147
 50
5.14466254207061E-9
 51
18.0000000252098
  0
ENDSEC
  0
EOF
