  0
SECTION
  2
HEADER
  9
$ACADVER
  1
AC1009
  9
$INSBASE
 10
0.0
 20
0.0
 30
0.0
  9
$EXTMIN
 10
1.000000E+20
 20
1.000000E+20
 30
1.000000E+20
  9
$EXTMAX
 10
-1.000000E+20
 20
-1.000000E+20
 30
-1.000000E+20
  9
$LIMMIN
 10
0.0
 20
0.0
  9
$LIMMAX
 10
0.0
 20
0.0
  9
$ORTHOMODE
 70
     0
  9
$REGENMODE
 70
     1
  9
$FILLMODE
 70
     1
  9
$QTEXTMODE
 70
     0
  9
$MIRRTEXT
 70
     1
  9
$DRAGMODE
 70
     2
  9
$LTSCALE
 40
1.0
  9
$OSMODE
 70
     0
  9
$ATTMODE
 70
     1
  9
$TEXTSIZE
 40
0.2
  9
$TRACEWID
 40
0.05
  9
$TEXTSTYLE
  7
STANDARD
  9
$CLAYER
  8
DEFAULT
  9
$CELTYPE
  6
BYLAYER
  9
$CECOLOR
 62
   256
  9
$DIMSCALE
 40
1.0
  9
$DIMASZ
 40
1.0
  9
$DIMEXO
 40
0.25
  9
$DIMDLI
 40
0.38
  9
$DIMRND
 40
0.0
  9
$DIMDLE
 40
0.0
  9
$DIMEXE
 40
0.5
  9
$DIMTP
 40
0.0
  9
$DIMTM
 40
0.0
  9
$DIMTXT
 40
1.0
  9
$DIMCEN
 40
0.09
  9
$DIMTSZ
 40
0.0
  9
$DIMTOL
 70
     0
  9
$DIMLIM
 70
     0
  9
$DIMTIH
 70
     0
  9
$DIMTOH
 70
     0
  9
$DIMSE1
 70
     0
  9
$DIMSE2
 70
     0
  9
$DIMTAD
 70
     1
  9
$DIMZIN
 70
     0
  9
$DIMBLK
  1

  9
$DIMASO
 70
     1
  9
$DIMSHO
 70
     1
  9
$DIMPOST
  1

  9
$DIMAPOST
  1

  9
$DIMALT
 70
     0
  9
$DIMALTD
 70
     2
  9
$DIMALTF
 40
25.4
  9
$DIMLFAC
 40
1.0
  9
$DIMTOFL
 70
     0
  9
$DIMTVP
 40
0.0
  9
$DIMTIX
 70
     0
  9
$DIMSOXD
 70
     0
  9
$DIMSAH
 70
     0
  9
$DIMBLK1
  1

  9
$DIMBLK2
  1

  9
$DIMSTYLE
  2
STANDARD
  9
$DIMCLRD
 70
     0
  9
$DIMCLRE
 70
     0
  9
$DIMCLRT
 70
     0
  9
$DIMTFAC
 40
1.0
  9
$DIMGAP
 40
0.333333
  9
$LUNITS
 70
     2
  9
$LUPREC
 70
     4
  9
$AXISMODE
 70
     0
  9
$AXISUNIT
 10
0.0
 20
0.0
  9
$SKETCHINC
 40
0.1
  9
$FILLETRAD
 40
0.0
  9
$AUNITS
 70
     0
  9
$AUPREC
 70
     0
  9
$MENU
  1
acad
  9
$ELEVATION
 40
0.0
  9
$PELEVATION
 40
0.0
  9
$THICKNESS
 40
0.0
  9
$LIMCHECK
 70
     0
  9
$BLIPMODE
 70
     1
  9
$CHAMFERA
 40
0.0
  9
$CHAMFERB
 40
0.0
  9
$SKPOLY
 70
     0
  9
$TDCREATE
 40
0.000000000
  9
$TDUPDATE
 40
0.000000000
  9
$TDINDWG
 40
0.0000000000
  9
$TDUSRTIMER
 40
0.0000000000
  9
$USRTIMER
 70
     1
  9
$ANGBASE
 50
0.0
  9
$ANGDIR
 70
     0
  9
$PDMODE
 70
     0
  9
$PDSIZE
 40
0.0
  9
$PLINEWID
 40
0.0
  9
$COORDS
 70
     0
  9
$SPLFRAME
 70
     0
  9
$SPLINETYPE
 70
     6
  9
$SPLINESEGS
 70
     8
  9
$ATTDIA
 70
     0
  9
$ATTREQ
 70
     1
  9
$HANDLING
 70
     1
  9
$HANDSEED
  5
DF6
  9
$SURFTAB1
 70
     6
  9
$SURFTAB2
 70
     6
  9
$SURFTYPE
 70
     6
  9
$SURFU
 70
     6
  9
$SURFV
 70
     6
  9
$UCSNAME
  2

  9
$UCSORG
 10
0.0
 20
0.0
 30
0.0
  9
$UCSXDIR
 10
1.0
 20
0.0
 30
0.0
  9
$UCSYDIR
 10
0.0
 20
1.0
 30
0.0
  9
$PUCSNAME
  2

  9
$PUCSORG
 10
0.0
 20
0.0
 30
0.0
  9
$PUCSXDIR
 10
1.0
 20
0.0
 30
0.0
  9
$PUCSYDIR
 10
0.0
 20
1.0
 30
0.0
  9
$USERI1
 70
     0
  9
$USERI2
 70
     0
  9
$USERI3
 70
     0
  9
$USERI4
 70
     0
  9
$USERI5
 70
     0
  9
$USERR1
 40
0.0
  9
$USERR2
 40
0.0
  9
$USERR3
 40
0.0
  9
$USERR4
 40
0.0
  9
$USERR5
 40
0.0
  9
$WORLDVIEW
 70
     1
  9
$SHADEDGE
 70
     3
  9
$SHADEDIF
 70
    70
  9
$TILEMODE
 70
     1
  9
$MAXACTVP
 70
    16
  9
$PINSBASE
 10
0.0
 20
0.0
 30
0.0
  9
$PLIMCHECK
 70
     0
  9
$PEXTMIN
 10
1.000000E+20
 20
1.000000E+20
 30
1.000000E+20
  9
$PEXTMAX
 10
-1.000000E+20
 20
-1.000000E+20
 30
-1.000000E+20
  9
$PLIMMIN
 10
0.0
 20
0.0
  9
$PLIMMAX
 10
12.0
 20
9.0
  9
$UNITMODE
 70
     0
  9
$VISRETAIN
 70
     0
  9
$PLINEGEN
 70
     1
  9
$PSLTSCALE
 70
     0
  9
$TREEDEPTH
 70
  3020
  9
$DWGCODEPAGE
  3
dos850
  0
ENDSEC
  0
SECTION
  2
TABLES
  0
TABLE
  2
VPORT
 70
     1
  0
VPORT
  2
*ACTIVE
 70
     0
 10
0.0
 20
0.0
 11
1.0
 21
1.0
 12
6.591288
 22
4.579184
 13
0.0
 23
0.0
 14
1.0
 24
1.0
 15
0.0
 25
0.0
 16
0.0
 26
0.0
 36
1.0
 17
0.0
 27
0.0
 37
0.0
 40
9.158369
 41
0.688564
 42
50.0
 43
0.0
 44
0.0
 50
0.0
 51
0.0
 71
     0
 72
   100
 73
     1
 74
     1
 75
     0
 76
     0
 77
     0
 78
     0
  0
ENDTAB
  0
TABLE
  2
LTYPE
 70
     1
  0
LTYPE
  2
CONTINUOUS
 70
    64
  3
Solid line
 72
    65
 73
     0
 40
0.0
  0
ENDTAB
  0
TABLE
  2
LAYER
 70
     2
  0
LAYER
  2
0
 70
     0
 62
     7
  6
CONTINUOUS
  0
LAYER
  2
DEFAULT
 70
     0
 62
     7
  6
CONTINUOUS
  0
ENDTAB
  0
TABLE
  2
STYLE
 70
     1
  0
STYLE
  2
STANDARD
 70
     0
 40
0.0
 41
1.0
 50
0.0
 71
     0
 42
0.0
  3
txt
  4

  0
ENDTAB
  0
TABLE
  2
VIEW
 70
     0
  0
ENDTAB
  0
TABLE
  2
UCS
 70
     0
  0
ENDTAB
  0
TABLE
  2
APPID
 70
     1
  0
APPID
  2
ACAD
 70
     0
  0
ENDTAB
  0
TABLE
  2
DIMSTYLE
 70
     1
  0
DIMSTYLE
  2
STANDARD
 70
     0
  3

  4

  5

  6

  7

 40
1.0
 41
0.18
 42
0.0625
 43
0.38
 44
0.18
 45
0.0
 46
0.0
 47
0.0
 48
0.0
 71
     0
 72
     0
 73
     1
 74
     1
 75
     0
 76
     0
 77
     0
 78
     0
140
0.18
141
0.09
142
0.0
143
25.4
144
1.0
145
0.0
146
1.0
147
0.09
170
     0
171
     2
172
     0
173
     0
174
     0
175
     0
176
     0
177
     0
178
     0
  0
ENDTAB
  0
ENDSEC
  0
SECTION
  2
BLOCKS
  0
ENDSEC
  0
SECTION
  2
ENTITIES
  0
CIRCLE
  8
DEFAULT
  5
1E
 10
7.756
 20
6.03
 30
0.0
 40
0.1
210
0.0
220
0.0
230
1.0
  0
CIRCLE
  8
DEFAULT
  5
1F
 10
7.756
 20
0.26
 30
0.0
 40
0.1
210
0.0
220
0.0
230
1.0
  0
CIRCLE
  8
DEFAULT
  5
20
 10
4.756
 20
6.03
 30
0.0
 40
0.1
210
0.0
220
0.0
230
1.0
  0
CIRCLE
  8
DEFAULT
  5
21
 10
6.256
 20
6.03
 30
0.0
 40
0.1
210
0.0
220
0.0
230
1.0
  0
CIRCLE
  8
DEFAULT
  5
22
 10
4.756
 20
0.26
 30
0.0
 40
0.1
210
0.0
220
0.0
230
1.0
  0
CIRCLE
  8
DEFAULT
  5
23
 10
6.256
 20
0.26
 30
0.0
 40
0.1
210
0.0
220
0.0
230
1.0
  0
POLYLINE
  8
DEFAULT
  5
24
 66
     1
 10
0.0
 20
0.0
 30
0.0
210
0.0
220
0.0
230
1.0
  0
VERTEX
  8
DEFAULT
  5
25
 10
0.488843
 20
0.746035
 30
0.0
  0
VERTEX
  8
DEFAULT
  5
26
 10
0.498895
 20
0.729217
 30
0.0
  0
VERTEX
  8
DEFAULT
  5
27
 10
0.488612
 20
0.723982
 30
0.0
  0
VERTEX
  8
DEFAULT
  5
28
 10
0.478468
 20
0.720566
 30
0.0
  0
VERTEX
  8
DEFAULT
  5
29
 10
0.473448
 20
0.71954
 30
0.0
  0
VERTEX
  8
DEFAULT
  5
2A
 10
0.468462
 20
0.71897
 30
0.0
  0
VERTEX
  8
DEFAULT
  5
2B
 10
0.463512
 20
0.718854
 30
0.0
  0
VERTEX
  8
DEFAULT
  5
2C
 10
0.458596
 20
0.719194
 30
0.0
  0
VERTEX
  8
DEFAULT
  5
2D
 10
0.453757
 20
0.719972
 30
0.0
  0
VERTEX
  8
DEFAULT
  5
2E
 10
0.449037
 20
0.721173
 30
0.0
  0
VERTEX
  8
DEFAULT
  5
2F
 10
0.444436
 20
0.722796
 30
0.0
  0
VERTEX
  8
DEFAULT
  5
30
 10
0.439953
 20
0.724842
 30
0.0
  0
VERTEX
  8
DEFAULT
  5
31
 10
0.431344
 20
0.730203
 30
0.0
  0
VERTEX
  8
DEFAULT
  5
32
 10
0.42321
 20
0.737254
 30
0.0
  0
VERTEX
  8
DEFAULT
  5
33
 10
0.415835
 20
0.745461
 30
0.0
  0
VERTEX
  8
DEFAULT
  5
34
 10
0.410056
 20
0.753738
 30
0.0
  0
VERTEX
  8
DEFAULT
  5
35
 10
0.405873
 20
0.762085
 30
0.0
  0
VERTEX
  8
DEFAULT
  5
36
 10
0.404379
 20
0.766284
 30
0.0
  0
VERTEX
  8
DEFAULT
  5
37
 10
0.403285
 20
0.770501
 30
0.0
  0
VERTEX
  8
DEFAULT
  5
38
 10
0.402174
 20
0.779019
 30
0.0
  0
VERTEX
  8
DEFAULT
  5
39
 10
0.402422
 20
0.787672
 30
0.0
  0
VERTEX
  8
DEFAULT
  5
3A
 10
0.404028
 20
0.796459
 30
0.0
  0
VERTEX
  8
DEFAULT
  5
3B
 10
0.406993
 20
0.805381
 30
0.0
  0
VERTEX
  8
DEFAULT
  5
3C
 10
0.428778
 20
0.837857
 30
0.0
  0
VERTEX
  8
DEFAULT
  5
3D
 10
0.462392
 20
0.8594
 30
0.0
  0
VERTEX
  8
DEFAULT
  5
3E
 10
0.471261
 20
0.861594
 30
0.0
  0
VERTEX
  8
DEFAULT
  5
3F
 10
0.480059
 20
0.862442
 30
0.0
  0
VERTEX
  8
DEFAULT
  5
40
 10
0.488789
 20
0.861945
 30
0.0
  0
VERTEX
  8
DEFAULT
  5
41
 10
0.497448
 20
0.860101
 30
0.0
  0
VERTEX
  8
DEFAULT
  5
42
 10
0.528083
 20
0.841684
 30
0.0
  0
VERTEX
  8
DEFAULT
  5
43
 10
0.534886
 20
0.833915
 30
0.0
  0
VERTEX
  8
DEFAULT
  5
44
 10
0.540119
 20
0.825783
 30
0.0
  0
VERTEX
  8
DEFAULT
  5
45
 10
0.543783
 20
0.817287
 30
0.0
  0
VERTEX
  8
DEFAULT
  5
46
 10
0.545026
 20
0.812904
 30
0.0
  0
VERTEX
  8
DEFAULT
  5
47
 10
0.545876
 20
0.808429
 30
0.0
  0
VERTEX
  8
DEFAULT
  5
48
 10
0.5464
 20
0.79939
 30
0.0
  0
VERTEX
  8
DEFAULT
  5
49
 10
0.545354
 20
0.79035
 30
0.0
  0
VERTEX
  8
DEFAULT
  5
4A
 10
0.542738
 20
0.781309
 30
0.0
  0
VERTEX
  8
DEFAULT
  5
4B
 10
0.538552
 20
0.772269
 30
0.0
  0
VERTEX
  8
DEFAULT
  5
4C
 10
0.522293
 20
0.782314
 30
0.0
  0
VERTEX
  8
DEFAULT
  5
4D
 10
0.528176
 20
0.808603
 30
0.0
  0
VERTEX
  8
DEFAULT
  5
4E
 10
0.516393
 20
0.830464
 30
0.0
  0
VERTEX
  8
DEFAULT
  5
4F
 10
0.491324
 20
0.844349
 30
0.0
  0
VERTEX
  8
DEFAULT
  5
50
 10
0.465312
 20
0.84033
 30
0.0
  0
VERTEX
  8
DEFAULT
  5
51
 10
0.442706
 20
0.824066
 30
0.0
  0
VERTEX
  8
DEFAULT
  5
52
 10
0.423916
 20
0.797774
 30
0.0
  0
VERTEX
  8
DEFAULT
  5
53
 10
0.421188
 20
0.771714
 30
0.0
  0
VERTEX
  8
DEFAULT
  5
54
 10
0.433562
 20
0.749811
 30
0.0
  0
VERTEX
  8
DEFAULT
  5
55
 10
0.439362
 20
0.744823
 30
0.0
  0
VERTEX
  8
DEFAULT
  5
56
 10
0.445543
 20
0.741075
 30
0.0
  0
VERTEX
  8
DEFAULT
  5
57
 10
0.448777
 20
0.739667
 30
0.0
  0
VERTEX
  8
DEFAULT
  5
58
 10
0.452106
 20
0.738569
 30
0.0
  0
VERTEX
  8
DEFAULT
  5
59
 10
0.45553
 20
0.737782
 30
0.0
  0
VERTEX
  8
DEFAULT
  5
5A
 10
0.459049
 20
0.737304
 30
0.0
  0
VERTEX
  8
DEFAULT
  5
5B
 10
0.462636
 20
0.737159
 30
0.0
  0
VERTEX
  8
DEFAULT
  5
5C
 10
0.466262
 20
0.737367
 30
0.0
  0
VERTEX
  8
DEFAULT
  5
5D
 10
0.469927
 20
0.737928
 30
0.0
  0
VERTEX
  8
DEFAULT
  5
5E
 10
0.473632
 20
0.738843
 30
0.0
  0
VERTEX
  8
DEFAULT
  5
5F
 10
0.481159
 20
0.741732
 30
0.0
  0
VERTEX
  8
DEFAULT
  5
60
 10
0.488843
 20
0.746035
 30
0.0
  0
SEQEND
  8
DEFAULT
  5
61
  0
POLYLINE
  8
DEFAULT
  5
62
 66
     1
 10
0.0
 20
0.0
 30
0.0
210
0.0
220
0.0
230
1.0
  0
VERTEX
  8
DEFAULT
  5
63
 10
0.51379
 20
0.723465
 30
0.0
  0
VERTEX
  8
DEFAULT
  5
64
 10
0.524006
 20
0.732265
 30
0.0
  0
VERTEX
  8
DEFAULT
  5
65
 10
0.529151
 20
0.735639
 30
0.0
  0
VERTEX
  8
DEFAULT
  5
66
 10
0.53432
 20
0.73833
 30
0.0
  0
VERTEX
  8
DEFAULT
  5
67
 10
0.539513
 20
0.740337
 30
0.0
  0
VERTEX
  8
DEFAULT
  5
68
 10
0.544731
 20
0.74166
 30
0.0
  0
VERTEX
  8
DEFAULT
  5
69
 10
0.549973
 20
0.7423
 30
0.0
  0
VERTEX
  8
DEFAULT
  5
6A
 10
0.55524
 20
0.742256
 30
0.0
  0
VERTEX
  8
DEFAULT
  5
6B
 10
0.559577
 20
0.741732
 30
0.0
  0
VERTEX
  8
DEFAULT
  5
6C
 10
0.563789
 20
0.740825
 30
0.0
  0
VERTEX
  8
DEFAULT
  5
6D
 10
0.567876
 20
0.739533
 30
0.0
  0
VERTEX
  8
DEFAULT
  5
6E
 10
0.571839
 20
0.737858
 30
0.0
  0
VERTEX
  8
DEFAULT
  5
6F
 10
0.575678
 20
0.735799
 30
0.0
  0
VERTEX
  8
DEFAULT
  5
70
 10
0.579392
 20
0.733356
 30
0.0
  0
VERTEX
  8
DEFAULT
  5
71
 10
0.586446
 20
0.727319
 30
0.0
  0
VERTEX
  8
DEFAULT
  5
72
 10
0.589987
 20
0.723469
 30
0.0
  0
VERTEX
  8
DEFAULT
  5
73
 10
0.593046
 20
0.719482
 30
0.0
  0
VERTEX
  8
DEFAULT
  5
74
 10
0.595623
 20
0.715359
 30
0.0
  0
VERTEX
  8
DEFAULT
  5
75
 10
0.597719
 20
0.7111
 30
0.0
  0
VERTEX
  8
DEFAULT
  5
76
 10
0.599333
 20
0.706704
 30
0.0
  0
VERTEX
  8
DEFAULT
  5
77
 10
0.600465
 20
0.702172
 30
0.0
  0
VERTEX
  8
DEFAULT
  5
78
 10
0.601115
 20
0.697504
 30
0.0
  0
VERTEX
  8
DEFAULT
  5
79
 10
0.601284
 20
0.692699
 30
0.0
  0
VERTEX
  8
DEFAULT
  5
7A
 10
0.600943
 20
0.687858
 30
0.0
  0
VERTEX
  8
DEFAULT
  5
7B
 10
0.600067
 20
0.683082
 30
0.0
  0
VERTEX
  8
DEFAULT
  5
7C
 10
0.598655
 20
0.678369
 30
0.0
  0
VERTEX
  8
DEFAULT
  5
7D
 10
0.596707
 20
0.673721
 30
0.0
  0
VERTEX
  8
DEFAULT
  5
7E
 10
0.594223
 20
0.669136
 30
0.0
  0
VERTEX
  8
DEFAULT
  5
7F
 10
0.591203
 20
0.664616
 30
0.0
  0
VERTEX
  8
DEFAULT
  5
80
 10
0.583555
 20
0.655768
 30
0.0
  0
VERTEX
  8
DEFAULT
  5
81
 10
0.557077
 20
0.637787
 30
0.0
  0
VERTEX
  8
DEFAULT
  5
82
 10
0.532134
 20
0.637573
 30
0.0
  0
VERTEX
  8
DEFAULT
  5
83
 10
0.509937
 20
0.65081
 30
0.0
  0
VERTEX
  8
DEFAULT
  5
84
 10
0.506332
 20
0.654722
 30
0.0
  0
VERTEX
  8
DEFAULT
  5
85
 10
0.50322
 20
0.658759
 30
0.0
  0
VERTEX
  8
DEFAULT
  5
86
 10
0.5006
 20
0.662918
 30
0.0
  0
VERTEX
  8
DEFAULT
  5
87
 10
0.498473
 20
0.667201
 30
0.0
  0
VERTEX
  8
DEFAULT
  5
88
 10
0.496839
 20
0.671608
 30
0.0
  0
VERTEX
  8
DEFAULT
  5
89
 10
0.495697
 20
0.676138
 30
0.0
  0
VERTEX
  8
DEFAULT
  5
8A
 10
0.495047
 20
0.680792
 30
0.0
  0
VERTEX
  8
DEFAULT
  5
8B
 10
0.494891
 20
0.685568
 30
0.0
  0
VERTEX
  8
DEFAULT
  5
8C
 10
0.495264
 20
0.690394
 30
0.0
  0
VERTEX
  8
DEFAULT
  5
8D
 10
0.496206
 20
0.695195
 30
0.0
  0
VERTEX
  8
DEFAULT
  5
8E
 10
0.497716
 20
0.69997
 30
0.0
  0
VERTEX
  8
DEFAULT
  5
8F
 10
0.499795
 20
0.70472
 30
0.0
  0
VERTEX
  8
DEFAULT
  5
90
 10
0.502441
 20
0.709444
 30
0.0
  0
VERTEX
  8
DEFAULT
  5
91
 10
0.505656
 20
0.714143
 30
0.0
  0
VERTEX
  8
DEFAULT
  5
92
 10
0.51379
 20
0.723465
 30
0.0
  0
SEQEND
  8
DEFAULT
  5
93
  0
POLYLINE
  8
DEFAULT
  5
94
 66
     1
 10
0.0
 20
0.0
 30
0.0
210
0.0
220
0.0
230
1.0
  0
VERTEX
  8
DEFAULT
  5
95
 10
0.526483
 20
0.710702
 30
0.0
  0
VERTEX
  8
DEFAULT
  5
96
 10
0.520283
 20
0.703731
 30
0.0
  0
VERTEX
  8
DEFAULT
  5
97
 10
0.515735
 20
0.696873
 30
0.0
  0
VERTEX
  8
DEFAULT
  5
98
 10
0.514082
 20
0.693486
 30
0.0
  0
VERTEX
  8
DEFAULT
  5
99
 10
0.512841
 20
0.690127
 30
0.0
  0
VERTEX
  8
DEFAULT
  5
9A
 10
0.512014
 20
0.686796
 30
0.0
  0
VERTEX
  8
DEFAULT
  5
9B
 10
0.5116
 20
0.683494
 30
0.0
  0
VERTEX
  8
DEFAULT
  5
9C
 10
0.511552
 20
0.680264
 30
0.0
  0
VERTEX
  8
DEFAULT
  5
9D
 10
0.511822
 20
0.677154
 30
0.0
  0
VERTEX
  8
DEFAULT
  5
9E
 10
0.51241
 20
0.674163
 30
0.0
  0
VERTEX
  8
DEFAULT
  5
9F
 10
0.513316
 20
0.671291
 30
0.0
  0
VERTEX
  8
DEFAULT
  5
A0
 10
0.51454
 20
0.668538
 30
0.0
  0
VERTEX
  8
DEFAULT
  5
A1
 10
0.516081
 20
0.665904
 30
0.0
  0
VERTEX
  8
DEFAULT
  5
A2
 10
0.517941
 20
0.663388
 30
0.0
  0
VERTEX
  8
DEFAULT
  5
A3
 10
0.520119
 20
0.660992
 30
0.0
  0
VERTEX
  8
DEFAULT
  5
A4
 10
0.522499
 20
0.658831
 30
0.0
  0
VERTEX
  8
DEFAULT
  5
A5
 10
0.525002
 20
0.656988
 30
0.0
  0
VERTEX
  8
DEFAULT
  5
A6
 10
0.527626
 20
0.655461
 30
0.0
  0
VERTEX
  8
DEFAULT
  5
A7
 10
0.530373
 20
0.654251
 30
0.0
  0
VERTEX
  8
DEFAULT
  5
A8
 10
0.533243
 20
0.653357
 30
0.0
  0
VERTEX
  8
DEFAULT
  5
A9
 10
0.536234
 20
0.652781
 30
0.0
  0
VERTEX
  8
DEFAULT
  5
AA
 10
0.539348
 20
0.652521
 30
0.0
  0
VERTEX
  8
DEFAULT
  5
AB
 10
0.542584
 20
0.652579
 30
0.0
  0
VERTEX
  8
DEFAULT
  5
AC
 10
0.5459
 20
0.653006
 30
0.0
  0
VERTEX
  8
DEFAULT
  5
AD
 10
0.549254
 20
0.653856
 30
0.0
  0
VERTEX
  8
DEFAULT
  5
AE
 10
0.552646
 20
0.655129
 30
0.0
  0
VERTEX
  8
DEFAULT
  5
AF
 10
0.556075
 20
0.656825
 30
0.0
  0
VERTEX
  8
DEFAULT
  5
B0
 10
0.563047
 20
0.661487
 30
0.0
  0
VERTEX
  8
DEFAULT
  5
B1
 10
0.570171
 20
0.66784
 30
0.0
  0
VERTEX
  8
DEFAULT
  5
B2
 10
0.576157
 20
0.674601
 30
0.0
  0
VERTEX
  8
DEFAULT
  5
B3
 10
0.580547
 20
0.681315
 30
0.0
  0
VERTEX
  8
DEFAULT
  5
B4
 10
0.582143
 20
0.684653
 30
0.0
  0
VERTEX
  8
DEFAULT
  5
B5
 10
0.58334
 20
0.68798
 30
0.0
  0
VERTEX
  8
DEFAULT
  5
B6
 10
0.584137
 20
0.691295
 30
0.0
  0
VERTEX
  8
DEFAULT
  5
B7
 10
0.584535
 20
0.694598
 30
0.0
  0
VERTEX
  8
DEFAULT
  5
B8
 10
0.584578
 20
0.697833
 30
0.0
  0
VERTEX
  8
DEFAULT
  5
B9
 10
0.584307
 20
0.700944
 30
0.0
  0
VERTEX
  8
DEFAULT
  5
BA
 10
0.583724
 20
0.70393
 30
0.0
  0
VERTEX
  8
DEFAULT
  5
BB
 10
0.582829
 20
0.706792
 30
0.0
  0
VERTEX
  8
DEFAULT
  5
BC
 10
0.581621
 20
0.709529
 30
0.0
  0
VERTEX
  8
DEFAULT
  5
BD
 10
0.580101
 20
0.712142
 30
0.0
  0
VERTEX
  8
DEFAULT
  5
BE
 10
0.578267
 20
0.714631
 30
0.0
  0
VERTEX
  8
DEFAULT
  5
BF
 10
0.576122
 20
0.716995
 30
0.0
  0
VERTEX
  8
DEFAULT
  5
C0
 10
0.573726
 20
0.719173
 30
0.0
  0
VERTEX
  8
DEFAULT
  5
C1
 10
0.571212
 20
0.721035
 30
0.0
  0
VERTEX
  8
DEFAULT
  5
C2
 10
0.568581
 20
0.722579
 30
0.0
  0
VERTEX
  8
DEFAULT
  5
C3
 10
0.565831
 20
0.723807
 30
0.0
  0
VERTEX
  8
DEFAULT
  5
C4
 10
0.562964
 20
0.724717
 30
0.0
  0
VERTEX
  8
DEFAULT
  5
C5
 10
0.559979
 20
0.725311
 30
0.0
  0
VERTEX
  8
DEFAULT
  5
C6
 10
0.556876
 20
0.725588
 30
0.0
  0
VERTEX
  8
DEFAULT
  5
C7
 10
0.553655
 20
0.725548
 30
0.0
  0
VERTEX
  8
DEFAULT
  5
C8
 10
0.55036
 20
0.725142
 30
0.0
  0
VERTEX
  8
DEFAULT
  5
C9
 10
0.547036
 20
0.724322
 30
0.0
  0
VERTEX
  8
DEFAULT
  5
CA
 10
0.543683
 20
0.723088
 30
0.0
  0
VERTEX
  8
DEFAULT
  5
CB
 10
0.540302
 20
0.721439
 30
0.0
  0
VERTEX
  8
DEFAULT
  5
CC
 10
0.53345
 20
0.716899
 30
0.0
  0
VERTEX
  8
DEFAULT
  5
CD
 10
0.526483
 20
0.710702
 30
0.0
  0
SEQEND
  8
DEFAULT
  5
CE
  0
POLYLINE
  8
DEFAULT
  5
CF
 66
     1
 10
0.0
 20
0.0
 30
0.0
210
0.0
220
0.0
230
1.0
  0
VERTEX
  8
DEFAULT
  5
D0
 10
0.560378
 20
0.60348
 30
0.0
  0
VERTEX
  8
DEFAULT
  5
D1
 10
0.633775
 20
0.676878
 30
0.0
  0
VERTEX
  8
DEFAULT
  5
D2
 10
0.644948
 20
0.665705
 30
0.0
  0
VERTEX
  8
DEFAULT
  5
D3
 10
0.634582
 20
0.65534
 30
0.0
  0
VERTEX
  8
DEFAULT
  5
D4
 10
0.652401
 20
0.654816
 30
0.0
  0
VERTEX
  8
DEFAULT
  5
D5
 10
0.668709
 20
0.645056
 30
0.0
  0
VERTEX
  8
DEFAULT
  5
D6
 10
0.678678
 20
0.628334
 30
0.0
  0
VERTEX
  8
DEFAULT
  5
D7
 10
0.67658
 20
0.611548
 30
0.0
  0
VERTEX
  8
DEFAULT
  5
D8
 10
0.681851
 20
0.612285
 30
0.0
  0
VERTEX
  8
DEFAULT
  5
D9
 10
0.686886
 20
0.612458
 30
0.0
  0
VERTEX
  8
DEFAULT
  5
DA
 10
0.691685
 20
0.612065
 30
0.0
  0
VERTEX
  8
DEFAULT
  5
DB
 10
0.696249
 20
0.611106
 30
0.0
  0
VERTEX
  8
DEFAULT
  5
DC
 10
0.700576
 20
0.609583
 30
0.0
  0
VERTEX
  8
DEFAULT
  5
DD
 10
0.704668
 20
0.607494
 30
0.0
  0
VERTEX
  8
DEFAULT
  5
DE
 10
0.708525
 20
0.604839
 30
0.0
  0
VERTEX
  8
DEFAULT
  5
DF
 10
0.712145
 20
0.601619
 30
0.0
  0
VERTEX
  8
DEFAULT
  5
E0
 10
0.71693
 20
0.59608
 30
0.0
  0
VERTEX
  8
DEFAULT
  5
E1
 10
0.718802
 20
0.593264
 30
0.0
  0
VERTEX
  8
DEFAULT
  5
E2
 10
0.720327
 20
0.590418
 30
0.0
  0
VERTEX
  8
DEFAULT
  5
E3
 10
0.721505
 20
0.587541
 30
0.0
  0
VERTEX
  8
DEFAULT
  5
E4
 10
0.722336
 20
0.584634
 30
0.0
  0
VERTEX
  8
DEFAULT
  5
E5
 10
0.722821
 20
0.581696
 30
0.0
  0
VERTEX
  8
DEFAULT
  5
E6
 10
0.722958
 20
0.578728
 30
0.0
  0
VERTEX
  8
DEFAULT
  5
E7
 10
0.722728
 20
0.575735
 30
0.0
  0
VERTEX
  8
DEFAULT
  5
E8
 10
0.72211
 20
0.572722
 30
0.0
  0
VERTEX
  8
DEFAULT
  5
E9
 10
0.721104
 20
0.56969
 30
0.0
  0
VERTEX
  8
DEFAULT
  5
EA
 10
0.719709
 20
0.566638
 30
0.0
  0
VERTEX
  8
DEFAULT
  5
EB
 10
0.715757
 20
0.560475
 30
0.0
  0
VERTEX
  8
DEFAULT
  5
EC
 10
0.710253
 20
0.554234
 30
0.0
  0
VERTEX
  8
DEFAULT
  5
ED
 10
0.659938
 20
0.503919
 30
0.0
  0
VERTEX
  8
DEFAULT
  5
EE
 10
0.647493
 20
0.516364
 30
0.0
  0
VERTEX
  8
DEFAULT
  5
EF
 10
0.69368
 20
0.562552
 30
0.0
  0
VERTEX
  8
DEFAULT
  5
F0
 10
0.703202
 20
0.5745
 30
0.0
  0
VERTEX
  8
DEFAULT
  5
F1
 10
0.704083
 20
0.584182
 30
0.0
  0
VERTEX
  8
DEFAULT
  5
F2
 10
0.698601
 20
0.593667
 30
0.0
  0
VERTEX
  8
DEFAULT
  5
F3
 10
0.68057
 20
0.601412
 30
0.0
  0
VERTEX
  8
DEFAULT
  5
F4
 10
0.658977
 20
0.590074
 30
0.0
  0
VERTEX
  8
DEFAULT
  5
F5
 10
0.61638
 20
0.547477
 30
0.0
  0
VERTEX
  8
DEFAULT
  5
F6
 10
0.603935
 20
0.559922
 30
0.0
  0
VERTEX
  8
DEFAULT
  5
F7
 10
0.651572
 20
0.607559
 30
0.0
  0
VERTEX
  8
DEFAULT
  5
F8
 10
0.660964
 20
0.62302
 30
0.0
  0
VERTEX
  8
DEFAULT
  5
F9
 10
0.655172
 20
0.637096
 30
0.0
  0
VERTEX
  8
DEFAULT
  5
FA
 10
0.642718
 20
0.644028
 30
0.0
  0
VERTEX
  8
DEFAULT
  5
FB
 10
0.62819
 20
0.642401
 30
0.0
  0
VERTEX
  8
DEFAULT
  5
FC
 10
0.610863
 20
0.629075
 30
0.0
  0
VERTEX
  8
DEFAULT
  5
FD
 10
0.572823
 20
0.591035
 30
0.0
  0
VERTEX
  8
DEFAULT
  5
FE
 10
0.560378
 20
0.60348
 30
0.0
  0
SEQEND
  8
DEFAULT
  5
FF
  0
POLYLINE
  8
DEFAULT
  5
100
 66
     1
 10
0.0
 20
0.0
 30
0.0
210
0.0
220
0.0
230
1.0
  0
VERTEX
  8
DEFAULT
  5
101
 10
0.65005
 20
0.457522
 30
0.0
  0
VERTEX
  8
DEFAULT
  5
102
 10
0.75159
 20
0.559063
 30
0.0
  0
VERTEX
  8
DEFAULT
  5
103
 10
0.762904
 20
0.547749
 30
0.0
  0
VERTEX
  8
DEFAULT
  5
104
 10
0.753254
 20
0.538099
 30
0.0
  0
VERTEX
  8
DEFAULT
  5
105
 10
0.770702
 20
0.537461
 30
0.0
  0
VERTEX
  8
DEFAULT
  5
106
 10
0.785721
 20
0.528043
 30
0.0
  0
VERTEX
  8
DEFAULT
  5
107
 10
0.797465
 20
0.506649
 30
0.0
  0
VERTEX
  8
DEFAULT
  5
108
 10
0.79469
 20
0.482199
 30
0.0
  0
VERTEX
  8
DEFAULT
  5
109
 10
0.779084
 20
0.459277
 30
0.0
  0
VERTEX
  8
DEFAULT
  5
10A
 10
0.754816
 20
0.443082
 30
0.0
  0
VERTEX
  8
DEFAULT
  5
10B
 10
0.729302
 20
0.441026
 30
0.0
  0
VERTEX
  8
DEFAULT
  5
10C
 10
0.708331
 20
0.452416
 30
0.0
  0
VERTEX
  8
DEFAULT
  5
10D
 10
0.699802
 20
0.466172
 30
0.0
  0
VERTEX
  8
DEFAULT
  5
10E
 10
0.698301
 20
0.480883
 30
0.0
  0
VERTEX
  8
DEFAULT
  5
10F
 10
0.662495
 20
0.445077
 30
0.0
  0
VERTEX
  8
DEFAULT
  5
110
 10
0.65005
 20
0.457522
 30
0.0
  0
SEQEND
  8
DEFAULT
  5
111
  0
POLYLINE
  8
DEFAULT
  5
112
 66
     1
 10
0.0
 20
0.0
 30
0.0
210
0.0
220
0.0
230
1.0
  0
VERTEX
  8
DEFAULT
  5
113
 10
0.725763
 20
0.510608
 30
0.0
  0
VERTEX
  8
DEFAULT
  5
114
 10
0.719519
 20
0.503649
 30
0.0
  0
VERTEX
  8
DEFAULT
  5
115
 10
0.714911
 20
0.496898
 30
0.0
  0
VERTEX
  8
DEFAULT
  5
116
 10
0.71322
 20
0.4936
 30
0.0
  0
VERTEX
  8
DEFAULT
  5
117
 10
0.711938
 20
0.490353
 30
0.0
  0
VERTEX
  8
DEFAULT
  5
118
 10
0.711065
 20
0.487158
 30
0.0
  0
VERTEX
  8
DEFAULT
  5
119
 10
0.710601
 20
0.484015
 30
0.0
  0
VERTEX
  8
DEFAULT
  5
11A
 10
0.710485
 20
0.480966
 30
0.0
  0
VERTEX
  8
DEFAULT
  5
11B
 10
0.710655
 20
0.478053
 30
0.0
  0
VERTEX
  8
DEFAULT
  5
11C
 10
0.711112
 20
0.475275
 30
0.0
  0
VERTEX
  8
DEFAULT
  5
11D
 10
0.711855
 20
0.472632
 30
0.0
  0
VERTEX
  8
DEFAULT
  5
11E
 10
0.712884
 20
0.470126
 30
0.0
  0
VERTEX
  8
DEFAULT
  5
11F
 10
0.7142
 20
0.467755
 30
0.0
  0
VERTEX
  8
DEFAULT
  5
120
 10
0.715803
 20
0.46552
 30
0.0
  0
VERTEX
  8
DEFAULT
  5
121
 10
0.717691
 20
0.46342
 30
0.0
  0
VERTEX
  8
DEFAULT
  5
122
 10
0.719829
 20
0.4615
 30
0.0
  0
VERTEX
  8
DEFAULT
  5
123
 10
0.722112
 20
0.459873
 30
0.0
  0
VERTEX
  8
DEFAULT
  5
124
 10
0.724539
 20
0.458539
 30
0.0
  0
VERTEX
  8
DEFAULT
  5
125
 10
0.72711
 20
0.457498
 30
0.0
  0
VERTEX
  8
DEFAULT
  5
126
 10
0.729825
 20
0.45675
 30
0.0
  0
VERTEX
  8
DEFAULT
  5
127
 10
0.732685
 20
0.456294
 30
0.0
  0
VERTEX
  8
DEFAULT
  5
128
 10
0.735689
 20
0.456131
 30
0.0
  0
VERTEX
  8
DEFAULT
  5
129
 10
0.738837
 20
0.456261
 30
0.0
  0
VERTEX
  8
DEFAULT
  5
12A
 10
0.742085
 20
0.45675
 30
0.0
  0
VERTEX
  8
DEFAULT
  5
12B
 10
0.74539
 20
0.457663
 30
0.0
  0
VERTEX
  8
DEFAULT
  5
12C
 10
0.74875
 20
0.458999
 30
0.0
  0
VERTEX
  8
DEFAULT
  5
12D
 10
0.752167
 20
0.46076
 30
0.0
  0
VERTEX
  8
DEFAULT
  5
12E
 10
0.759168
 20
0.465553
 30
0.0
  0
VERTEX
  8
DEFAULT
  5
12F
 10
0.766393
 20
0.472042
 30
0.0
  0
VERTEX
  8
DEFAULT
  5
130
 10
0.772588
 20
0.478956
 30
0.0
  0
VERTEX
  8
DEFAULT
  5
131
 10
0.777186
 20
0.48571
 30
0.0
  0
VERTEX
  8
DEFAULT
  5
132
 10
0.778886
 20
0.489028
 30
0.0
  0
VERTEX
  8
DEFAULT
  5
133
 10
0.780186
 20
0.492305
 30
0.0
  0
VERTEX
  8
DEFAULT
  5
134
 10
0.781087
 20
0.495542
 30
0.0
  0
VERTEX
  8
DEFAULT
  5
135
 10
0.781589
 20
0.49874
 30
0.0
  0
VERTEX
  8
DEFAULT
  5
136
 10
0.781748
 20
0.501844
 30
0.0
  0
VERTEX
  8
DEFAULT
  5
137
 10
0.781619
 20
0.5048
 30
0.0
  0
VERTEX
  8
DEFAULT
  5
138
 10
0.781203
 20
0.507608
 30
0.0
  0
VERTEX
  8
DEFAULT
  5
139
 10
0.780499
 20
0.51027
 30
0.0
  0
VERTEX
  8
DEFAULT
  5
13A
 10
0.779508
 20
0.512783
 30
0.0
  0
VERTEX
  8
DEFAULT
  5
13B
 10
0.778229
 20
0.515149
 30
0.0
  0
VERTEX
  8
DEFAULT
  5
13C
 10
0.776663
 20
0.517367
 30
0.0
  0
VERTEX
  8
DEFAULT
  5
13D
 10
0.77481
 20
0.519438
 30
0.0
  0
VERTEX
  8
DEFAULT
  5
13E
 10
0.772743
 20
0.521274
 30
0.0
  0
VERTEX
  8
DEFAULT
  5
13F
 10
0.770501
 20
0.522821
 30
0.0
  0
VERTEX
  8
DEFAULT
  5
140
 10
0.768085
 20
0.52408
 30
0.0
  0
VERTEX
  8
DEFAULT
  5
141
 10
0.765495
 20
0.52505
 30
0.0
  0
VERTEX
  8
DEFAULT
  5
142
 10
0.76273
 20
0.525731
 30
0.0
  0
VERTEX
  8
DEFAULT
  5
143
 10
0.759791
 20
0.526124
 30
0.0
  0
VERTEX
  8
DEFAULT
  5
144
 10
0.756677
 20
0.526229
 30
0.0
  0
VERTEX
  8
DEFAULT
  5
145
 10
0.753389
 20
0.526045
 30
0.0
  0
VERTEX
  8
DEFAULT
  5
146
 10
0.750004
 20
0.525517
 30
0.0
  0
VERTEX
  8
DEFAULT
  5
147
 10
0.746599
 20
0.524588
 30
0.0
  0
VERTEX
  8
DEFAULT
  5
148
 10
0.743175
 20
0.523259
 30
0.0
  0
VERTEX
  8
DEFAULT
  5
149
 10
0.739732
 20
0.52153
 30
0.0
  0
VERTEX
  8
DEFAULT
  5
14A
 10
0.732787
 20
0.51687
 30
0.0
  0
VERTEX
  8
DEFAULT
  5
14B
 10
0.725763
 20
0.510608
 30
0.0
  0
SEQEND
  8
DEFAULT
  5
14C
  0
POLYLINE
  8
DEFAULT
  5
14D
 66
     1
 10
0.0
 20
0.0
 30
0.0
210
0.0
220
0.0
230
1.0
  0
VERTEX
  8
DEFAULT
  5
14E
 10
0.788855
 20
0.4484
 30
0.0
  0
VERTEX
  8
DEFAULT
  5
14F
 10
0.799071
 20
0.4572
 30
0.0
  0
VERTEX
  8
DEFAULT
  5
150
 10
0.804215
 20
0.460574
 30
0.0
  0
VERTEX
  8
DEFAULT
  5
151
 10
0.809384
 20
0.463265
 30
0.0
  0
VERTEX
  8
DEFAULT
  5
152
 10
0.814578
 20
0.465272
 30
0.0
  0
VERTEX
  8
DEFAULT
  5
153
 10
0.819795
 20
0.466596
 30
0.0
  0
VERTEX
  8
DEFAULT
  5
154
 10
0.825038
 20
0.467236
 30
0.0
  0
VERTEX
  8
DEFAULT
  5
155
 10
0.830305
 20
0.467192
 30
0.0
  0
VERTEX
  8
DEFAULT
  5
156
 10
0.834641
 20
0.466668
 30
0.0
  0
VERTEX
  8
DEFAULT
  5
157
 10
0.838853
 20
0.46576
 30
0.0
  0
VERTEX
  8
DEFAULT
  5
158
 10
0.842941
 20
0.464469
 30
0.0
  0
VERTEX
  8
DEFAULT
  5
159
 10
0.846904
 20
0.462793
 30
0.0
  0
VERTEX
  8
DEFAULT
  5
15A
 10
0.850742
 20
0.460734
 30
0.0
  0
VERTEX
  8
DEFAULT
  5
15B
 10
0.854456
 20
0.458291
 30
0.0
  0
VERTEX
  8
DEFAULT
  5
15C
 10
0.86151
 20
0.452254
 30
0.0
  0
VERTEX
  8
DEFAULT
  5
15D
 10
0.865051
 20
0.448404
 30
0.0
  0
VERTEX
  8
DEFAULT
  5
15E
 10
0.86811
 20
0.444418
 30
0.0
  0
VERTEX
  8
DEFAULT
  5
15F
 10
0.870688
 20
0.440295
 30
0.0
  0
VERTEX
  8
DEFAULT
  5
160
 10
0.872783
 20
0.436035
 30
0.0
  0
VERTEX
  8
DEFAULT
  5
161
 10
0.874397
 20
0.43164
 30
0.0
  0
VERTEX
  8
DEFAULT
  5
162
 10
0.875529
 20
0.427108
 30
0.0
  0
VERTEX
  8
DEFAULT
  5
163
 10
0.87618
 20
0.422439
 30
0.0
  0
VERTEX
  8
DEFAULT
  5
164
 10
0.876348
 20
0.417635
 30
0.0
  0
VERTEX
  8
DEFAULT
  5
165
 10
0.876008
 20
0.412794
 30
0.0
  0
VERTEX
  8
DEFAULT
  5
166
 10
0.875132
 20
0.408017
 30
0.0
  0
VERTEX
  8
DEFAULT
  5
167
 10
0.873719
 20
0.403304
 30
0.0
  0
VERTEX
  8
DEFAULT
  5
168
 10
0.871771
 20
0.398656
 30
0.0
  0
VERTEX
  8
DEFAULT
  5
169
 10
0.869287
 20
0.394072
 30
0.0
  0
VERTEX
  8
DEFAULT
  5
16A
 10
0.866267
 20
0.389552
 30
0.0
  0
VERTEX
  8
DEFAULT
  5
16B
 10
0.85862
 20
0.380704
 30
0.0
  0
VERTEX
  8
DEFAULT
  5
16C
 10
0.832142
 20
0.362722
 30
0.0
  0
VERTEX
  8
DEFAULT
  5
16D
 10
0.807199
 20
0.362508
 30
0.0
  0
VERTEX
  8
DEFAULT
  5
16E
 10
0.785001
 20
0.375745
 30
0.0
  0
VERTEX
  8
DEFAULT
  5
16F
 10
0.781396
 20
0.379658
 30
0.0
  0
VERTEX
  8
DEFAULT
  5
170
 10
0.778284
 20
0.383694
 30
0.0
  0
VERTEX
  8
DEFAULT
  5
171
 10
0.775665
 20
0.387854
 30
0.0
  0
VERTEX
  8
DEFAULT
  5
172
 10
0.773538
 20
0.392137
 30
0.0
  0
VERTEX
  8
DEFAULT
  5
173
 10
0.771903
 20
0.396543
 30
0.0
  0
VERTEX
  8
DEFAULT
  5
174
 10
0.770761
 20
0.401073
 30
0.0
  0
VERTEX
  8
DEFAULT
  5
175
 10
0.770112
 20
0.405727
 30
0.0
  0
VERTEX
  8
DEFAULT
  5
176
 10
0.769955
 20
0.410504
 30
0.0
  0
VERTEX
  8
DEFAULT
  5
177
 10
0.770329
 20
0.41533
 30
0.0
  0
VERTEX
  8
DEFAULT
  5
178
 10
0.771271
 20
0.420131
 30
0.0
  0
VERTEX
  8
DEFAULT
  5
179
 10
0.772781
 20
0.424906
 30
0.0
  0
VERTEX
  8
DEFAULT
  5
17A
 10
0.774859
 20
0.429656
 30
0.0
  0
VERTEX
  8
DEFAULT
  5
17B
 10
0.777506
 20
0.43438
 30
0.0
  0
VERTEX
  8
DEFAULT
  5
17C
 10
0.78072
 20
0.439079
 30
0.0
  0
VERTEX
  8
DEFAULT
  5
17D
 10
0.788855
 20
0.4484
 30
0.0
  0
SEQEND
  8
DEFAULT
  5
17E
  0
POLYLINE
  8
DEFAULT
  5
17F
 66
     1
 10
0.0
 20
0.0
 30
0.0
210
0.0
220
0.0
230
1.0
  0
VERTEX
  8
DEFAULT
  5
180
 10
0.801547
 20
0.435637
 30
0.0
  0
VERTEX
  8
DEFAULT
  5
181
 10
0.795347
 20
0.428667
 30
0.0
  0
VERTEX
  8
DEFAULT
  5
182
 10
0.7908
 20
0.421808
 30
0.0
  0
VERTEX
  8
DEFAULT
  5
183
 10
0.789146
 20
0.418421
 30
0.0
  0
VERTEX
  8
DEFAULT
  5
184
 10
0.787906
 20
0.415062
 30
0.0
  0
VERTEX
  8
DEFAULT
  5
185
 10
0.787079
 20
0.411732
 30
0.0
  0
VERTEX
  8
DEFAULT
  5
186
 10
0.786665
 20
0.408429
 30
0.0
  0
VERTEX
  8
DEFAULT
  5
187
 10
0.786617
 20
0.4052
 30
0.0
  0
VERTEX
  8
DEFAULT
  5
188
 10
0.786887
 20
0.40209
 30
0.0
  0
VERTEX
  8
DEFAULT
  5
189
 10
0.787474
 20
0.399099
 30
0.0
  0
VERTEX
  8
DEFAULT
  5
18A
 10
0.78838
 20
0.396226
 30
0.0
  0
VERTEX
  8
DEFAULT
  5
18B
 10
0.789604
 20
0.393473
 30
0.0
  0
VERTEX
  8
DEFAULT
  5
18C
 10
0.791146
 20
0.390839
 30
0.0
  0
VERTEX
  8
DEFAULT
  5
18D
 10
0.793006
 20
0.388324
 30
0.0
  0
VERTEX
  8
DEFAULT
  5
18E
 10
0.795183
 20
0.385928
 30
0.0
  0
VERTEX
  8
DEFAULT
  5
18F
 10
0.797564
 20
0.383767
 30
0.0
  0
VERTEX
  8
DEFAULT
  5
190
 10
0.800066
 20
0.381923
 30
0.0
  0
VERTEX
  8
DEFAULT
  5
191
 10
0.802691
 20
0.380396
 30
0.0
  0
VERTEX
  8
DEFAULT
  5
192
 10
0.805438
 20
0.379186
 30
0.0
  0
VERTEX
  8
DEFAULT
  5
193
 10
0.808307
 20
0.378293
 30
0.0
  0
VERTEX
  8
DEFAULT
  5
194
 10
0.811299
 20
0.377716
 30
0.0
  0
VERTEX
  8
DEFAULT
  5
195
 10
0.814412
 20
0.377457
 30
0.0
  0
VERTEX
  8
DEFAULT
  5
196
 10
0.817648
 20
0.377514
 30
0.0
  0
VERTEX
  8
DEFAULT
  5
197
 10
0.820965
 20
0.377941
 30
0.0
  0
VERTEX
  8
DEFAULT
  5
198
 10
0.824318
 20
0.378792
 30
0.0
  0
VERTEX
  8
DEFAULT
  5
199
 10
0.82771
 20
0.380065
 30
0.0
  0
VERTEX
  8
DEFAULT
  5
19A
 10
0.83114
 20
0.381761
 30
0.0
  0
VERTEX
  8
DEFAULT
  5
19B
 10
0.838112
 20
0.386422
 30
0.0
  0
VERTEX
  8
DEFAULT
  5
19C
 10
0.845236
 20
0.392775
 30
0.0
  0
VERTEX
  8
DEFAULT
  5
19D
 10
0.851222
 20
0.399537
 30
0.0
  0
VERTEX
  8
DEFAULT
  5
19E
 10
0.855612
 20
0.40625
 30
0.0
  0
VERTEX
  8
DEFAULT
  5
19F
 10
0.857207
 20
0.409589
 30
0.0
  0
VERTEX
  8
DEFAULT
  5
1A0
 10
0.858404
 20
0.412916
 30
0.0
  0
VERTEX
  8
DEFAULT
  5
1A1
 10
0.859202
 20
0.416231
 30
0.0
  0
VERTEX
  8
DEFAULT
  5
1A2
 10
0.8596
 20
0.419534
 30
0.0
  0
VERTEX
  8
DEFAULT
  5
1A3
 10
0.859642
 20
0.422769
 30
0.0
  0
VERTEX
  8
DEFAULT
  5
1A4
 10
0.859372
 20
0.425879
 30
0.0
  0
VERTEX
  8
DEFAULT
  5
1A5
 10
0.858789
 20
0.428866
 30
0.0
  0
VERTEX
  8
DEFAULT
  5
1A6
 10
0.857894
 20
0.431727
 30
0.0
  0
VERTEX
  8
DEFAULT
  5
1A7
 10
0.856686
 20
0.434465
 30
0.0
  0
VERTEX
  8
DEFAULT
  5
1A8
 10
0.855165
 20
0.437078
 30
0.0
  0
VERTEX
  8
DEFAULT
  5
1A9
 10
0.853332
 20
0.439566
 30
0.0
  0
VERTEX
  8
DEFAULT
  5
1AA
 10
0.851186
 20
0.44193
 30
0.0
  0
VERTEX
  8
DEFAULT
  5
1AB
 10
0.848791
 20
0.444109
 30
0.0
  0
VERTEX
  8
DEFAULT
  5
1AC
 10
0.846277
 20
0.44597
 30
0.0
  0
VERTEX
  8
DEFAULT
  5
1AD
 10
0.843645
 20
0.447515
 30
0.0
  0
VERTEX
  8
DEFAULT
  5
1AE
 10
0.840896
 20
0.448742
 30
0.0
  0
VERTEX
  8
DEFAULT
  5
1AF
 10
0.838029
 20
0.449653
 30
0.0
  0
VERTEX
  8
DEFAULT
  5
1B0
 10
0.835043
 20
0.450246
 30
0.0
  0
VERTEX
  8
DEFAULT
  5
1B1
 10
0.83194
 20
0.450523
 30
0.0
  0
VERTEX
  8
DEFAULT
  5
1B2
 10
0.828719
 20
0.450483
 30
0.0
  0
VERTEX
  8
DEFAULT
  5
1B3
 10
0.825424
 20
0.450077
 30
0.0
  0
VERTEX
  8
DEFAULT
  5
1B4
 10
0.822101
 20
0.449257
 30
0.0
  0
VERTEX
  8
DEFAULT
  5
1B5
 10
0.818748
 20
0.448023
 30
0.0
  0
VERTEX
  8
DEFAULT
  5
1B6
 10
0.815366
 20
0.446374
 30
0.0
  0
VERTEX
  8
DEFAULT
  5
1B7
 10
0.808515
 20
0.441834
 30
0.0
  0
VERTEX
  8
DEFAULT
  5
1B8
 10
0.801547
 20
0.435637
 30
0.0
  0
SEQEND
  8
DEFAULT
  5
1B9
  0
POLYLINE
  8
DEFAULT
  5
1BA
 66
     1
 10
0.0
 20
0.0
 30
0.0
210
0.0
220
0.0
230
1.0
  0
VERTEX
  8
DEFAULT
  5
1BB
 10
0.835453
 20
0.328404
 30
0.0
  0
VERTEX
  8
DEFAULT
  5
1BC
 10
0.908851
 20
0.401802
 30
0.0
  0
VERTEX
  8
DEFAULT
  5
1BD
 10
0.920023
 20
0.39063
 30
0.0
  0
VERTEX
  8
DEFAULT
  5
1BE
 10
0.909596
 20
0.380202
 30
0.0
  0
VERTEX
  8
DEFAULT
  5
1BF
 10
0.914534
 20
0.380881
 30
0.0
  0
VERTEX
  8
DEFAULT
  5
1C0
 10
0.919323
 20
0.38096
 30
0.0
  0
VERTEX
  8
DEFAULT
  5
1C1
 10
0.923961
 20
0.380441
 30
0.0
  0
VERTEX
  8
DEFAULT
  5
1C2
 10
0.928449
 20
0.379323
 30
0.0
  0
VERTEX
  8
DEFAULT
  5
1C3
 10
0.932787
 20
0.377607
 30
0.0
  0
VERTEX
  8
DEFAULT
  5
1C4
 10
0.936975
 20
0.375291
 30
0.0
  0
VERTEX
  8
DEFAULT
  5
1C5
 10
0.941013
 20
0.372377
 30
0.0
  0
VERTEX
  8
DEFAULT
  5
1C6
 10
0.9449
 20
0.368864
 30
0.0
  0
VERTEX
  8
DEFAULT
  5
1C7
 10
0.954696
 20
0.354307
 30
0.0
  0
VERTEX
  8
DEFAULT
  5
1C8
 10
0.956764
 20
0.339747
 30
0.0
  0
VERTEX
  8
DEFAULT
  5
1C9
 10
0.95145
 20
0.326703
 30
0.0
  0
VERTEX
  8
DEFAULT
  5
1CA
 10
0.940061
 20
0.313935
 30
0.0
  0
VERTEX
  8
DEFAULT
  5
1CB
 10
0.894992
 20
0.268866
 30
0.0
  0
VERTEX
  8
DEFAULT
  5
1CC
 10
0.882546
 20
0.281311
 30
0.0
  0
VERTEX
  8
DEFAULT
  5
1CD
 10
0.927145
 20
0.32591
 30
0.0
  0
VERTEX
  8
DEFAULT
  5
1CE
 10
0.937056
 20
0.338713
 30
0.0
  0
VERTEX
  8
DEFAULT
  5
1CF
 10
0.93793
 20
0.349851
 30
0.0
  0
VERTEX
  8
DEFAULT
  5
1D0
 10
0.931529
 20
0.360739
 30
0.0
  0
VERTEX
  8
DEFAULT
  5
1D1
 10
0.912816
 20
0.369374
 30
0.0
  0
VERTEX
  8
DEFAULT
  5
1D2
 10
0.910067
 20
0.36932
 30
0.0
  0
VERTEX
  8
DEFAULT
  5
1D3
 10
0.907215
 20
0.368805
 30
0.0
  0
VERTEX
  8
DEFAULT
  5
1D4
 10
0.90426
 20
0.367827
 30
0.0
  0
VERTEX
  8
DEFAULT
  5
1D5
 10
0.901202
 20
0.366387
 30
0.0
  0
VERTEX
  8
DEFAULT
  5
1D6
 10
0.894777
 20
0.362119
 30
0.0
  0
VERTEX
  8
DEFAULT
  5
1D7
 10
0.88794
 20
0.356001
 30
0.0
  0
VERTEX
  8
DEFAULT
  5
1D8
 10
0.847898
 20
0.315959
 30
0.0
  0
VERTEX
  8
DEFAULT
  5
1D9
 10
0.835453
 20
0.328404
 30
0.0
  0
SEQEND
  8
DEFAULT
  5
1DA
  0
POLYLINE
  8
DEFAULT
  5
1DB
 66
     1
 10
0.0
 20
0.0
 30
0.0
210
0.0
220
0.0
230
1.0
  0
VERTEX
  8
DEFAULT
  5
1DC
 10
0.98791
 20
0.223465
 30
0.0
  0
VERTEX
  8
DEFAULT
  5
1DD
 10
0.999087
 20
0.208895
 30
0.0
  0
VERTEX
  8
DEFAULT
  5
1DE
 10
0.970435
 20
0.202705
 30
0.0
  0
VERTEX
  8
DEFAULT
  5
1DF
 10
0.966862
 20
0.203374
 30
0.0
  0
VERTEX
  8
DEFAULT
  5
1E0
 10
0.96334
 20
0.204378
 30
0.0
  0
VERTEX
  8
DEFAULT
  5
1E1
 10
0.956451
 20
0.207394
 30
0.0
  0
VERTEX
  8
DEFAULT
  5
1E2
 10
0.949768
 20
0.211753
 30
0.0
  0
VERTEX
  8
DEFAULT
  5
1E3
 10
0.943291
 20
0.217455
 30
0.0
  0
VERTEX
  8
DEFAULT
  5
1E4
 10
0.936298
 20
0.225684
 30
0.0
  0
VERTEX
  8
DEFAULT
  5
1E5
 10
0.933577
 20
0.229951
 30
0.0
  0
VERTEX
  8
DEFAULT
  5
1E6
 10
0.931372
 20
0.234319
 30
0.0
  0
VERTEX
  8
DEFAULT
  5
1E7
 10
0.929685
 20
0.238789
 30
0.0
  0
VERTEX
  8
DEFAULT
  5
1E8
 10
0.928514
 20
0.243359
 30
0.0
  0
VERTEX
  8
DEFAULT
  5
1E9
 10
0.92786
 20
0.248031
 30
0.0
  0
VERTEX
  8
DEFAULT
  5
1EA
 10
0.927723
 20
0.252805
 30
0.0
  0
VERTEX
  8
DEFAULT
  5
1EB
 10
0.928115
 20
0.257606
 30
0.0
  0
VERTEX
  8
DEFAULT
  5
1EC
 10
0.929051
 20
0.262363
 30
0.0
  0
VERTEX
  8
DEFAULT
  5
1ED
 10
0.930529
 20
0.267074
 30
0.0
  0
VERTEX
  8
DEFAULT
  5
1EE
 10
0.93255
 20
0.27174
 30
0.0
  0
VERTEX
  8
DEFAULT
  5
1EF
 10
0.935113
 20
0.276361
 30
0.0
  0
VERTEX
  8
DEFAULT
  5
1F0
 10
0.938219
 20
0.280937
 30
0.0
  0
VERTEX
  8
DEFAULT
  5
1F1
 10
0.94606
 20
0.289953
 30
0.0
  0
VERTEX
  8
DEFAULT
  5
1F2
 10
0.955374
 20
0.298079
 30
0.0
  0
VERTEX
  8
DEFAULT
  5
1F3
 10
0.960089
 20
0.301308
 30
0.0
  0
VERTEX
  8
DEFAULT
  5
1F4
 10
0.964842
 20
0.303981
 30
0.0
  0
VERTEX
  8
DEFAULT
  5
1F5
 10
0.969635
 20
0.306099
 30
0.0
  0
VERTEX
  8
DEFAULT
  5
1F6
 10
0.974465
 20
0.307662
 30
0.0
  0
VERTEX
  8
DEFAULT
  5
1F7
 10
0.979335
 20
0.308668
 30
0.0
  0
VERTEX
  8
DEFAULT
  5
1F8
 10
0.984243
 20
0.309119
 30
0.0
  0
VERTEX
  8
DEFAULT
  5
1F9
 10
0.989099
 20
0.309045
 30
0.0
  0
VERTEX
  8
DEFAULT
  5
1FA
 10
0.993813
 20
0.308475
 30
0.0
  0
VERTEX
  8
DEFAULT
  5
1FB
 10
0.998385
 20
0.307409
 30
0.0
  0
VERTEX
  8
DEFAULT
  5
1FC
 10
1.002815
 20
0.305849
 30
0.0
  0
VERTEX
  8
DEFAULT
  5
1FD
 10
1.007103
 20
0.303792
 30
0.0
  0
VERTEX
  8
DEFAULT
  5
1FE
 10
1.011248
 20
0.301241
 30
0.0
  0
VERTEX
  8
DEFAULT
  5
1FF
 10
1.015252
 20
0.298194
 30
0.0
  0
VERTEX
  8
DEFAULT
  5
200
 10
1.019113
 20
0.294651
 30
0.0
  0
VERTEX
  8
DEFAULT
  5
201
 10
1.022542
 20
0.29091
 30
0.0
  0
VERTEX
  8
DEFAULT
  5
202
 10
1.025491
 20
0.287024
 30
0.0
  0
VERTEX
  8
DEFAULT
  5
203
 10
1.027959
 20
0.282994
 30
0.0
  0
VERTEX
  8
DEFAULT
  5
204
 10
1.029947
 20
0.278819
 30
0.0
  0
VERTEX
  8
DEFAULT
  5
205
 10
1.031455
 20
0.2745
 30
0.0
  0
VERTEX
  8
DEFAULT
  5
206
 10
1.032482
 20
0.270036
 30
0.0
  0
VERTEX
  8
DEFAULT
  5
207
 10
1.033029
 20
0.265428
 30
0.0
  0
VERTEX
  8
DEFAULT
  5
208
 10
1.033095
 20
0.260676
 30
0.0
  0
VERTEX
  8
DEFAULT
  5
209
 10
1.032649
 20
0.255869
 30
0.0
  0
VERTEX
  8
DEFAULT
  5
20A
 10
1.031658
 20
0.251099
 30
0.0
  0
VERTEX
  8
DEFAULT
  5
20B
 10
1.030122
 20
0.246366
 30
0.0
  0
VERTEX
  8
DEFAULT
  5
20C
 10
1.028041
 20
0.241669
 30
0.0
  0
VERTEX
  8
DEFAULT
  5
20D
 10
1.025415
 20
0.237008
 30
0.0
  0
VERTEX
  8
DEFAULT
  5
20E
 10
1.022244
 20
0.232384
 30
0.0
  0
VERTEX
  8
DEFAULT
  5
20F
 10
1.014267
 20
0.223244
 30
0.0
  0
VERTEX
  8
DEFAULT
  5
210
 10
1.010889
 20
0.220003
 30
0.0
  0
VERTEX
  8
DEFAULT
  5
211
 10
0.956227
 20
0.274664
 30
0.0
  0
VERTEX
  8
DEFAULT
  5
212
 10
0.944575
 20
0.249361
 30
0.0
  0
VERTEX
  8
DEFAULT
  5
213
 10
0.944654
 20
0.246276
 30
0.0
  0
VERTEX
  8
DEFAULT
  5
214
 10
0.945028
 20
0.243298
 30
0.0
  0
VERTEX
  8
DEFAULT
  5
215
 10
0.945697
 20
0.240424
 30
0.0
  0
VERTEX
  8
DEFAULT
  5
216
 10
0.946661
 20
0.237656
 30
0.0
  0
VERTEX
  8
DEFAULT
  5
217
 10
0.947921
 20
0.234994
 30
0.0
  0
VERTEX
  8
DEFAULT
  5
218
 10
0.949476
 20
0.232437
 30
0.0
  0
VERTEX
  8
DEFAULT
  5
219
 10
0.951326
 20
0.229985
 30
0.0
  0
VERTEX
  8
DEFAULT
  5
21A
 10
0.953472
 20
0.22764
 30
0.0
  0
VERTEX
  8
DEFAULT
  5
21B
 10
0.968734
 20
0.219596
 30
0.0
  0
VERTEX
  8
DEFAULT
  5
21C
 10
0.98791
 20
0.223465
 30
0.0
  0
SEQEND
  8
DEFAULT
  5
21D
  0
POLYLINE
  8
DEFAULT
  5
21E
 66
     1
 10
0.0
 20
0.0
 30
0.0
210
0.0
220
0.0
230
1.0
  0
VERTEX
  8
DEFAULT
  5
21F
 10
0.967116
 20
0.28414
 30
0.0
  0
VERTEX
  8
DEFAULT
  5
220
 10
1.007987
 20
0.243269
 30
0.0
  0
VERTEX
  8
DEFAULT
  5
221
 10
1.017186
 20
0.261841
 30
0.0
  0
VERTEX
  8
DEFAULT
  5
222
 10
1.017334
 20
0.265062
 30
0.0
  0
VERTEX
  8
DEFAULT
  5
223
 10
1.017147
 20
0.268168
 30
0.0
  0
VERTEX
  8
DEFAULT
  5
224
 10
1.016626
 20
0.27116
 30
0.0
  0
VERTEX
  8
DEFAULT
  5
225
 10
1.01577
 20
0.274036
 30
0.0
  0
VERTEX
  8
DEFAULT
  5
226
 10
1.01458
 20
0.276798
 30
0.0
  0
VERTEX
  8
DEFAULT
  5
227
 10
1.013056
 20
0.279445
 30
0.0
  0
VERTEX
  8
DEFAULT
  5
228
 10
1.011197
 20
0.281978
 30
0.0
  0
VERTEX
  8
DEFAULT
  5
229
 10
1.009004
 20
0.284396
 30
0.0
  0
VERTEX
  8
DEFAULT
  5
22A
 10
0.988899
 20
0.293033
 30
0.0
  0
VERTEX
  8
DEFAULT
  5
22B
 10
0.967116
 20
0.28414
 30
0.0
  0
SEQEND
  8
DEFAULT
  5
22C
  0
POLYLINE
  8
DEFAULT
  5
22D
 66
     1
 10
0.0
 20
0.0
 30
0.0
210
0.0
220
0.0
230
1.0
  0
VERTEX
  8
DEFAULT
  5
22E
 10
0.992714
 20
0.171144
 30
0.0
  0
VERTEX
  8
DEFAULT
  5
22F
 10
1.066111
 20
0.244542
 30
0.0
  0
VERTEX
  8
DEFAULT
  5
230
 10
1.077284
 20
0.233369
 30
0.0
  0
VERTEX
  8
DEFAULT
  5
231
 10
1.066856
 20
0.222942
 30
0.0
  0
VERTEX
  8
DEFAULT
  5
232
 10
1.071795
 20
0.22362
 30
0.0
  0
VERTEX
  8
DEFAULT
  5
233
 10
1.076583
 20
0.2237
 30
0.0
  0
VERTEX
  8
DEFAULT
  5
234
 10
1.081222
 20
0.223181
 30
0.0
  0
VERTEX
  8
DEFAULT
  5
235
 10
1.08571
 20
0.222063
 30
0.0
  0
VERTEX
  8
DEFAULT
  5
236
 10
1.090048
 20
0.220346
 30
0.0
  0
VERTEX
  8
DEFAULT
  5
237
 10
1.094236
 20
0.218031
 30
0.0
  0
VERTEX
  8
DEFAULT
  5
238
 10
1.098273
 20
0.215117
 30
0.0
  0
VERTEX
  8
DEFAULT
  5
239
 10
1.102161
 20
0.211604
 30
0.0
  0
VERTEX
  8
DEFAULT
  5
23A
 10
1.111956
 20
0.197046
 30
0.0
  0
VERTEX
  8
DEFAULT
  5
23B
 10
1.114025
 20
0.182486
 30
0.0
  0
VERTEX
  8
DEFAULT
  5
23C
 10
1.10871
 20
0.169442
 30
0.0
  0
VERTEX
  8
DEFAULT
  5
23D
 10
1.097321
 20
0.156675
 30
0.0
  0
VERTEX
  8
DEFAULT
  5
23E
 10
1.052252
 20
0.111606
 30
0.0
  0
VERTEX
  8
DEFAULT
  5
23F
 10
1.039807
 20
0.124051
 30
0.0
  0
VERTEX
  8
DEFAULT
  5
240
 10
1.084406
 20
0.168649
 30
0.0
  0
VERTEX
  8
DEFAULT
  5
241
 10
1.094316
 20
0.181452
 30
0.0
  0
VERTEX
  8
DEFAULT
  5
242
 10
1.09519
 20
0.19259
 30
0.0
  0
VERTEX
  8
DEFAULT
  5
243
 10
1.08879
 20
0.203479
 30
0.0
  0
VERTEX
  8
DEFAULT
  5
244
 10
1.070077
 20
0.212113
 30
0.0
  0
VERTEX
  8
DEFAULT
  5
245
 10
1.067327
 20
0.21206
 30
0.0
  0
VERTEX
  8
DEFAULT
  5
246
 10
1.064475
 20
0.211544
 30
0.0
  0
VERTEX
  8
DEFAULT
  5
247
 10
1.06152
 20
0.210567
 30
0.0
  0
VERTEX
  8
DEFAULT
  5
248
 10
1.058462
 20
0.209126
 30
0.0
  0
VERTEX
  8
DEFAULT
  5
249
 10
1.052037
 20
0.204858
 30
0.0
  0
VERTEX
  8
DEFAULT
  5
24A
 10
1.045201
 20
0.198741
 30
0.0
  0
VERTEX
  8
DEFAULT
  5
24B
 10
1.005159
 20
0.158699
 30
0.0
  0
VERTEX
  8
DEFAULT
  5
24C
 10
0.992714
 20
0.171144
 30
0.0
  0
SEQEND
  8
DEFAULT
  5
24D
  0
POLYLINE
  8
DEFAULT
  5
24E
 66
     1
 10
0.0
 20
0.0
 30
0.0
210
0.0
220
0.0
230
1.0
  0
VERTEX
  8
DEFAULT
  5
24F
 10
1.10945
 20
0.076597
 30
0.0
  0
VERTEX
  8
DEFAULT
  5
250
 10
1.100167
 20
0.06392
 30
0.0
  0
VERTEX
  8
DEFAULT
  5
251
 10
1.089696
 20
0.072182
 30
0.0
  0
VERTEX
  8
DEFAULT
  5
252
 10
1.081372
 20
0.084797
 30
0.0
  0
VERTEX
  8
DEFAULT
  5
253
 10
1.081777
 20
0.095672
 30
0.0
  0
VERTEX
  8
DEFAULT
  5
254
 10
1.094966
 20
0.111893
 30
0.0
  0
VERTEX
  8
DEFAULT
  5
255
 10
1.137246
 20
0.154173
 30
0.0
  0
VERTEX
  8
DEFAULT
  5
256
 10
1.128054
 20
0.163366
 30
0.0
  0
VERTEX
  8
DEFAULT
  5
257
 10
1.137671
 20
0.172982
 30
0.0
  0
VERTEX
  8
DEFAULT
  5
258
 10
1.146863
 20
0.16379
 30
0.0
  0
VERTEX
  8
DEFAULT
  5
259
 10
1.165022
 20
0.181949
 30
0.0
  0
VERTEX
  8
DEFAULT
  5
25A
 10
1.184925
 20
0.176962
 30
0.0
  0
VERTEX
  8
DEFAULT
  5
25B
 10
1.159308
 20
0.151345
 30
0.0
  0
VERTEX
  8
DEFAULT
  5
25C
 10
1.171753
 20
0.1389
 30
0.0
  0
VERTEX
  8
DEFAULT
  5
25D
 10
1.162137
 20
0.129283
 30
0.0
  0
VERTEX
  8
DEFAULT
  5
25E
 10
1.149691
 20
0.141728
 30
0.0
  0
VERTEX
  8
DEFAULT
  5
25F
 10
1.106695
 20
0.098732
 30
0.0
  0
VERTEX
  8
DEFAULT
  5
260
 10
1.100493
 20
0.091224
 30
0.0
  0
VERTEX
  8
DEFAULT
  5
261
 10
1.100202
 20
0.08667
 30
0.0
  0
VERTEX
  8
DEFAULT
  5
262
 10
1.103531
 20
0.08154
 30
0.0
  0
VERTEX
  8
DEFAULT
  5
263
 10
1.10945
 20
0.076597
 30
0.0
  0
SEQEND
  8
DEFAULT
  5
264
  0
POLYLINE
  8
DEFAULT
  5
265
 66
     1
 10
0.0
 20
0.0
 30
0.0
210
0.0
220
0.0
230
1.0
  0
VERTEX
  8
DEFAULT
  5
266
 10
0.591176
 20
5.717247
 30
0.0
  0
VERTEX
  8
DEFAULT
  5
267
 10
0.602631
 20
5.730965
 30
0.0
  0
VERTEX
  8
DEFAULT
  5
268
 10
0.619344
 20
5.722604
 30
0.0
  0
VERTEX
  8
DEFAULT
  5
269
 10
0.637443
 20
5.724868
 30
0.0
  0
VERTEX
  8
DEFAULT
  5
26A
 10
0.655995
 20
5.737377
 30
0.0
  0
VERTEX
  8
DEFAULT
  5
26B
 10
0.667231
 20
5.753198
 30
0.0
  0
VERTEX
  8
DEFAULT
  5
26C
 10
0.669677
 20
5.768215
 30
0.0
  0
VERTEX
  8
DEFAULT
  5
26D
 10
0.663871
 20
5.779751
 30
0.0
  0
VERTEX
  8
DEFAULT
  5
26E
 10
0.652818
 20
5.785277
 30
0.0
  0
VERTEX
  8
DEFAULT
  5
26F
 10
0.637736
 20
5.782122
 30
0.0
  0
VERTEX
  8
DEFAULT
  5
270
 10
0.614769
 20
5.769031
 30
0.0
  0
VERTEX
  8
DEFAULT
  5
271
 10
0.588909
 20
5.755819
 30
0.0
  0
VERTEX
  8
DEFAULT
  5
272
 10
0.568681
 20
5.754476
 30
0.0
  0
VERTEX
  8
DEFAULT
  5
273
 10
0.55251
 20
5.763549
 30
0.0
  0
VERTEX
  8
DEFAULT
  5
274
 10
0.542508
 20
5.782253
 30
0.0
  0
VERTEX
  8
DEFAULT
  5
275
 10
0.545081
 20
5.805091
 30
0.0
  0
VERTEX
  8
DEFAULT
  5
276
 10
0.560198
 20
5.827124
 30
0.0
  0
VERTEX
  8
DEFAULT
  5
277
 10
0.583678
 20
5.84335
 30
0.0
  0
VERTEX
  8
DEFAULT
  5
278
 10
0.607577
 20
5.845899
 30
0.0
  0
VERTEX
  8
DEFAULT
  5
279
 10
0.628511
 20
5.834909
 30
0.0
  0
VERTEX
  8
DEFAULT
  5
27A
 10
0.616632
 20
5.82105
 30
0.0
  0
VERTEX
  8
DEFAULT
  5
27B
 10
0.595141
 20
5.828518
 30
0.0
  0
VERTEX
  8
DEFAULT
  5
27C
 10
0.572594
 20
5.815762
 30
0.0
  0
VERTEX
  8
DEFAULT
  5
27D
 10
0.559332
 20
5.793588
 30
0.0
  0
VERTEX
  8
DEFAULT
  5
27E
 10
0.564511
 20
5.777287
 30
0.0
  0
VERTEX
  8
DEFAULT
  5
27F
 10
0.577429
 20
5.772244
 30
0.0
  0
VERTEX
  8
DEFAULT
  5
280
 10
0.604856
 20
5.785231
 30
0.0
  0
VERTEX
  8
DEFAULT
  5
281
 10
0.63371
 20
5.801182
 30
0.0
  0
VERTEX
  8
DEFAULT
  5
282
 10
0.657042
 20
5.803908
 30
0.0
  0
VERTEX
  8
DEFAULT
  5
283
 10
0.675615
 20
5.793745
 30
0.0
  0
VERTEX
  8
DEFAULT
  5
284
 10
0.686192
 20
5.773929
 30
0.0
  0
VERTEX
  8
DEFAULT
  5
285
 10
0.684013
 20
5.74956
 30
0.0
  0
VERTEX
  8
DEFAULT
  5
286
 10
0.668496
 20
5.726119
 30
0.0
  0
VERTEX
  8
DEFAULT
  5
287
 10
0.641497
 20
5.707124
 30
0.0
  0
VERTEX
  8
DEFAULT
  5
288
 10
0.614908
 20
5.704616
 30
0.0
  0
VERTEX
  8
DEFAULT
  5
289
 10
0.591176
 20
5.717247
 30
0.0
  0
SEQEND
  8
DEFAULT
  5
28A
  0
POLYLINE
  8
DEFAULT
  5
28B
 66
     1
 10
0.0
 20
0.0
 30
0.0
210
0.0
220
0.0
230
1.0
  0
VERTEX
  8
DEFAULT
  5
28C
 10
0.679493
 20
5.813908
 30
0.0
  0
VERTEX
  8
DEFAULT
  5
28D
 10
0.670694
 20
5.824124
 30
0.0
  0
VERTEX
  8
DEFAULT
  5
28E
 10
0.667319
 20
5.829269
 30
0.0
  0
VERTEX
  8
DEFAULT
  5
28F
 10
0.664629
 20
5.834437
 30
0.0
  0
VERTEX
  8
DEFAULT
  5
290
 10
0.662622
 20
5.839631
 30
0.0
  0
VERTEX
  8
DEFAULT
  5
291
 10
0.661298
 20
5.844849
 30
0.0
  0
VERTEX
  8
DEFAULT
  5
292
 10
0.660658
 20
5.850091
 30
0.0
  0
VERTEX
  8
DEFAULT
  5
293
 10
0.660702
 20
5.855358
 30
0.0
  0
VERTEX
  8
DEFAULT
  5
294
 10
0.661226
 20
5.859695
 30
0.0
  0
VERTEX
  8
DEFAULT
  5
295
 10
0.662134
 20
5.863907
 30
0.0
  0
VERTEX
  8
DEFAULT
  5
296
 10
0.663425
 20
5.867994
 30
0.0
  0
VERTEX
  8
DEFAULT
  5
297
 10
0.6651
 20
5.871957
 30
0.0
  0
VERTEX
  8
DEFAULT
  5
298
 10
0.667159
 20
5.875796
 30
0.0
  0
VERTEX
  8
DEFAULT
  5
299
 10
0.669602
 20
5.879509
 30
0.0
  0
VERTEX
  8
DEFAULT
  5
29A
 10
0.67564
 20
5.886563
 30
0.0
  0
VERTEX
  8
DEFAULT
  5
29B
 10
0.67949
 20
5.890104
 30
0.0
  0
VERTEX
  8
DEFAULT
  5
29C
 10
0.683476
 20
5.893164
 30
0.0
  0
VERTEX
  8
DEFAULT
  5
29D
 10
0.687599
 20
5.895741
 30
0.0
  0
VERTEX
  8
DEFAULT
  5
29E
 10
0.691858
 20
5.897837
 30
0.0
  0
VERTEX
  8
DEFAULT
  5
29F
 10
0.696254
 20
5.899451
 30
0.0
  0
VERTEX
  8
DEFAULT
  5
2A0
 10
0.700786
 20
5.900583
 30
0.0
  0
VERTEX
  8
DEFAULT
  5
2A1
 10
0.705454
 20
5.901233
 30
0.0
  0
VERTEX
  8
DEFAULT
  5
2A2
 10
0.710259
 20
5.901402
 30
0.0
  0
VERTEX
  8
DEFAULT
  5
2A3
 10
0.7151
 20
5.901061
 30
0.0
  0
VERTEX
  8
DEFAULT
  5
2A4
 10
0.719877
 20
5.900185
 30
0.0
  0
VERTEX
  8
DEFAULT
  5
2A5
 10
0.724589
 20
5.898773
 30
0.0
  0
VERTEX
  8
DEFAULT
  5
2A6
 10
0.729238
 20
5.896825
 30
0.0
  0
VERTEX
  8
DEFAULT
  5
2A7
 10
0.733822
 20
5.894341
 30
0.0
  0
VERTEX
  8
DEFAULT
  5
2A8
 10
0.738342
 20
5.891321
 30
0.0
  0
VERTEX
  8
DEFAULT
  5
2A9
 10
0.74719
 20
5.883673
 30
0.0
  0
VERTEX
  8
DEFAULT
  5
2AA
 10
0.765171
 20
5.857195
 30
0.0
  0
VERTEX
  8
DEFAULT
  5
2AB
 10
0.765386
 20
5.832252
 30
0.0
  0
VERTEX
  8
DEFAULT
  5
2AC
 10
0.752149
 20
5.810054
 30
0.0
  0
VERTEX
  8
DEFAULT
  5
2AD
 10
0.748236
 20
5.80645
 30
0.0
  0
VERTEX
  8
DEFAULT
  5
2AE
 10
0.7442
 20
5.803338
 30
0.0
  0
VERTEX
  8
DEFAULT
  5
2AF
 10
0.74004
 20
5.800718
 30
0.0
  0
VERTEX
  8
DEFAULT
  5
2B0
 10
0.735757
 20
5.798591
 30
0.0
  0
VERTEX
  8
DEFAULT
  5
2B1
 10
0.73135
 20
5.796957
 30
0.0
  0
VERTEX
  8
DEFAULT
  5
2B2
 10
0.72682
 20
5.795815
 30
0.0
  0
VERTEX
  8
DEFAULT
  5
2B3
 10
0.722167
 20
5.795165
 30
0.0
  0
VERTEX
  8
DEFAULT
  5
2B4
 10
0.71739
 20
5.795009
 30
0.0
  0
VERTEX
  8
DEFAULT
  5
2B5
 10
0.712564
 20
5.795382
 30
0.0
  0
VERTEX
  8
DEFAULT
  5
2B6
 10
0.707763
 20
5.796324
 30
0.0
  0
VERTEX
  8
DEFAULT
  5
2B7
 10
0.702988
 20
5.797834
 30
0.0
  0
VERTEX
  8
DEFAULT
  5
2B8
 10
0.698238
 20
5.799912
 30
0.0
  0
VERTEX
  8
DEFAULT
  5
2B9
 10
0.693514
 20
5.802559
 30
0.0
  0
VERTEX
  8
DEFAULT
  5
2BA
 10
0.688815
 20
5.805774
 30
0.0
  0
VERTEX
  8
DEFAULT
  5
2BB
 10
0.679493
 20
5.813908
 30
0.0
  0
SEQEND
  8
DEFAULT
  5
2BC
  0
POLYLINE
  8
DEFAULT
  5
2BD
 66
     1
 10
0.0
 20
0.0
 30
0.0
210
0.0
220
0.0
230
1.0
  0
VERTEX
  8
DEFAULT
  5
2BE
 10
0.692257
 20
5.826601
 30
0.0
  0
VERTEX
  8
DEFAULT
  5
2BF
 10
0.699227
 20
5.8204
 30
0.0
  0
VERTEX
  8
DEFAULT
  5
2C0
 10
0.706086
 20
5.815853
 30
0.0
  0
VERTEX
  8
DEFAULT
  5
2C1
 10
0.709472
 20
5.8142
 30
0.0
  0
VERTEX
  8
DEFAULT
  5
2C2
 10
0.712831
 20
5.812959
 30
0.0
  0
VERTEX
  8
DEFAULT
  5
2C3
 10
0.716162
 20
5.812132
 30
0.0
  0
VERTEX
  8
DEFAULT
  5
2C4
 10
0.719465
 20
5.811718
 30
0.0
  0
VERTEX
  8
DEFAULT
  5
2C5
 10
0.722694
 20
5.81167
 30
0.0
  0
VERTEX
  8
DEFAULT
  5
2C6
 10
0.725804
 20
5.81194
 30
0.0
  0
VERTEX
  8
DEFAULT
  5
2C7
 10
0.728795
 20
5.812528
 30
0.0
  0
VERTEX
  8
DEFAULT
  5
2C8
 10
0.731667
 20
5.813434
 30
0.0
  0
VERTEX
  8
DEFAULT
  5
2C9
 10
0.734421
 20
5.814657
 30
0.0
  0
VERTEX
  8
DEFAULT
  5
2CA
 10
0.737055
 20
5.816199
 30
0.0
  0
VERTEX
  8
DEFAULT
  5
2CB
 10
0.73957
 20
5.818059
 30
0.0
  0
VERTEX
  8
DEFAULT
  5
2CC
 10
0.741966
 20
5.820237
 30
0.0
  0
VERTEX
  8
DEFAULT
  5
2CD
 10
0.744127
 20
5.822617
 30
0.0
  0
VERTEX
  8
DEFAULT
  5
2CE
 10
0.745971
 20
5.825119
 30
0.0
  0
VERTEX
  8
DEFAULT
  5
2CF
 10
0.747498
 20
5.827744
 30
0.0
  0
VERTEX
  8
DEFAULT
  5
2D0
 10
0.748708
 20
5.830491
 30
0.0
  0
VERTEX
  8
DEFAULT
  5
2D1
 10
0.749601
 20
5.83336
 30
0.0
  0
VERTEX
  8
DEFAULT
  5
2D2
 10
0.750177
 20
5.836352
 30
0.0
  0
VERTEX
  8
DEFAULT
  5
2D3
 10
0.750437
 20
5.839466
 30
0.0
  0
VERTEX
  8
DEFAULT
  5
2D4
 10
0.75038
 20
5.842702
 30
0.0
  0
VERTEX
  8
DEFAULT
  5
2D5
 10
0.749952
 20
5.846018
 30
0.0
  0
VERTEX
  8
DEFAULT
  5
2D6
 10
0.749102
 20
5.849372
 30
0.0
  0
VERTEX
  8
DEFAULT
  5
2D7
 10
0.747829
 20
5.852763
 30
0.0
  0
VERTEX
  8
DEFAULT
  5
2D8
 10
0.746133
 20
5.856193
 30
0.0
  0
VERTEX
  8
DEFAULT
  5
2D9
 10
0.741472
 20
5.863165
 30
0.0
  0
VERTEX
  8
DEFAULT
  5
2DA
 10
0.735118
 20
5.870289
 30
0.0
  0
VERTEX
  8
DEFAULT
  5
2DB
 10
0.728357
 20
5.876275
 30
0.0
  0
VERTEX
  8
DEFAULT
  5
2DC
 10
0.721644
 20
5.880665
 30
0.0
  0
VERTEX
  8
DEFAULT
  5
2DD
 10
0.718305
 20
5.882261
 30
0.0
  0
VERTEX
  8
DEFAULT
  5
2DE
 10
0.714978
 20
5.883457
 30
0.0
  0
VERTEX
  8
DEFAULT
  5
2DF
 10
0.711663
 20
5.884255
 30
0.0
  0
VERTEX
  8
DEFAULT
  5
2E0
 10
0.70836
 20
5.884653
 30
0.0
  0
VERTEX
  8
DEFAULT
  5
2E1
 10
0.705125
 20
5.884695
 30
0.0
  0
VERTEX
  8
DEFAULT
  5
2E2
 10
0.702014
 20
5.884425
 30
0.0
  0
VERTEX
  8
DEFAULT
  5
2E3
 10
0.699028
 20
5.883842
 30
0.0
  0
VERTEX
  8
DEFAULT
  5
2E4
 10
0.696166
 20
5.882947
 30
0.0
  0
VERTEX
  8
DEFAULT
  5
2E5
 10
0.693429
 20
5.881739
 30
0.0
  0
VERTEX
  8
DEFAULT
  5
2E6
 10
0.690816
 20
5.880218
 30
0.0
  0
VERTEX
  8
DEFAULT
  5
2E7
 10
0.688328
 20
5.878385
 30
0.0
  0
VERTEX
  8
DEFAULT
  5
2E8
 10
0.685963
 20
5.87624
 30
0.0
  0
VERTEX
  8
DEFAULT
  5
2E9
 10
0.683785
 20
5.873844
 30
0.0
  0
VERTEX
  8
DEFAULT
  5
2EA
 10
0.681924
 20
5.87133
 30
0.0
  0
VERTEX
  8
DEFAULT
  5
2EB
 10
0.680379
 20
5.868699
 30
0.0
  0
VERTEX
  8
DEFAULT
  5
2EC
 10
0.679152
 20
5.865949
 30
0.0
  0
VERTEX
  8
DEFAULT
  5
2ED
 10
0.678241
 20
5.863082
 30
0.0
  0
VERTEX
  8
DEFAULT
  5
2EE
 10
0.677647
 20
5.860097
 30
0.0
  0
VERTEX
  8
DEFAULT
  5
2EF
 10
0.677371
 20
5.856994
 30
0.0
  0
VERTEX
  8
DEFAULT
  5
2F0
 10
0.677411
 20
5.853772
 30
0.0
  0
VERTEX
  8
DEFAULT
  5
2F1
 10
0.677816
 20
5.850478
 30
0.0
  0
VERTEX
  8
DEFAULT
  5
2F2
 10
0.678636
 20
5.847154
 30
0.0
  0
VERTEX
  8
DEFAULT
  5
2F3
 10
0.679871
 20
5.843801
 30
0.0
  0
VERTEX
  8
DEFAULT
  5
2F4
 10
0.681519
 20
5.840419
 30
0.0
  0
VERTEX
  8
DEFAULT
  5
2F5
 10
0.686059
 20
5.833568
 30
0.0
  0
VERTEX
  8
DEFAULT
  5
2F6
 10
0.692257
 20
5.826601
 30
0.0
  0
SEQEND
  8
DEFAULT
  5
2F7
  0
POLYLINE
  8
DEFAULT
  5
2F8
 66
     1
 10
0.0
 20
0.0
 30
0.0
210
0.0
220
0.0
230
1.0
  0
VERTEX
  8
DEFAULT
  5
2F9
 10
0.799207
 20
5.860224
 30
0.0
  0
VERTEX
  8
DEFAULT
  5
2FA
 10
0.697949
 20
5.961481
 30
0.0
  0
VERTEX
  8
DEFAULT
  5
2FB
 10
0.710394
 20
5.973926
 30
0.0
  0
VERTEX
  8
DEFAULT
  5
2FC
 10
0.811652
 20
5.872669
 30
0.0
  0
VERTEX
  8
DEFAULT
  5
2FD
 10
0.799207
 20
5.860224
 30
0.0
  0
SEQEND
  8
DEFAULT
  5
2FE
  0
POLYLINE
  8
DEFAULT
  5
2FF
 66
     1
 10
0.0
 20
0.0
 30
0.0
210
0.0
220
0.0
230
1.0
  0
VERTEX
  8
DEFAULT
  5
300
 10
0.878261
 20
5.939278
 30
0.0
  0
VERTEX
  8
DEFAULT
  5
301
 10
0.868947
 20
5.948592
 30
0.0
  0
VERTEX
  8
DEFAULT
  5
302
 10
0.869649
 20
5.944199
 30
0.0
  0
VERTEX
  8
DEFAULT
  5
303
 10
0.869807
 20
5.939941
 30
0.0
  0
VERTEX
  8
DEFAULT
  5
304
 10
0.86942
 20
5.935818
 30
0.0
  0
VERTEX
  8
DEFAULT
  5
305
 10
0.868489
 20
5.931829
 30
0.0
  0
VERTEX
  8
DEFAULT
  5
306
 10
0.867013
 20
5.927976
 30
0.0
  0
VERTEX
  8
DEFAULT
  5
307
 10
0.864992
 20
5.924257
 30
0.0
  0
VERTEX
  8
DEFAULT
  5
308
 10
0.862427
 20
5.920672
 30
0.0
  0
VERTEX
  8
DEFAULT
  5
309
 10
0.859317
 20
5.917223
 30
0.0
  0
VERTEX
  8
DEFAULT
  5
30A
 10
0.838376
 20
5.905932
 30
0.0
  0
VERTEX
  8
DEFAULT
  5
30B
 10
0.813512
 20
5.908017
 30
0.0
  0
VERTEX
  8
DEFAULT
  5
30C
 10
0.789588
 20
5.923866
 30
0.0
  0
VERTEX
  8
DEFAULT
  5
30D
 10
0.773361
 20
5.947407
 30
0.0
  0
VERTEX
  8
DEFAULT
  5
30E
 10
0.770648
 20
5.972059
 30
0.0
  0
VERTEX
  8
DEFAULT
  5
30F
 10
0.782243
 20
5.993166
 30
0.0
  0
VERTEX
  8
DEFAULT
  5
310
 10
0.796848
 20
6.002159
 30
0.0
  0
VERTEX
  8
DEFAULT
  5
311
 10
0.812575
 20
6.003267
 30
0.0
  0
VERTEX
  8
DEFAULT
  5
312
 10
0.776155
 20
6.039687
 30
0.0
  0
VERTEX
  8
DEFAULT
  5
313
 10
0.7886
 20
6.052132
 30
0.0
  0
VERTEX
  8
DEFAULT
  5
314
 10
0.889858
 20
5.950875
 30
0.0
  0
VERTEX
  8
DEFAULT
  5
315
 10
0.878261
 20
5.939278
 30
0.0
  0
SEQEND
  8
DEFAULT
  5
316
  0
POLYLINE
  8
DEFAULT
  5
317
 66
     1
 10
0.0
 20
0.0
 30
0.0
210
0.0
220
0.0
230
1.0
  0
VERTEX
  8
DEFAULT
  5
318
 10
0.802353
 20
5.936556
 30
0.0
  0
VERTEX
  8
DEFAULT
  5
319
 10
0.809308
 20
5.930346
 30
0.0
  0
VERTEX
  8
DEFAULT
  5
31A
 10
0.81612
 20
5.925766
 30
0.0
  0
VERTEX
  8
DEFAULT
  5
31B
 10
0.819472
 20
5.924088
 30
0.0
  0
VERTEX
  8
DEFAULT
  5
31C
 10
0.822789
 20
5.922818
 30
0.0
  0
VERTEX
  8
DEFAULT
  5
31D
 10
0.82607
 20
5.921956
 30
0.0
  0
VERTEX
  8
DEFAULT
  5
31E
 10
0.829316
 20
5.921501
 30
0.0
  0
VERTEX
  8
DEFAULT
  5
31F
 10
0.832469
 20
5.921393
 30
0.0
  0
VERTEX
  8
DEFAULT
  5
320
 10
0.835471
 20
5.921568
 30
0.0
  0
VERTEX
  8
DEFAULT
  5
321
 10
0.838323
 20
5.922029
 30
0.0
  0
VERTEX
  8
DEFAULT
  5
322
 10
0.841024
 20
5.922773
 30
0.0
  0
VERTEX
  8
DEFAULT
  5
323
 10
0.843575
 20
5.923802
 30
0.0
  0
VERTEX
  8
DEFAULT
  5
324
 10
0.845976
 20
5.925116
 30
0.0
  0
VERTEX
  8
DEFAULT
  5
325
 10
0.848226
 20
5.926714
 30
0.0
  0
VERTEX
  8
DEFAULT
  5
326
 10
0.850326
 20
5.928596
 30
0.0
  0
VERTEX
  8
DEFAULT
  5
327
 10
0.857559
 20
5.949124
 30
0.0
  0
VERTEX
  8
DEFAULT
  5
328
 10
0.857127
 20
5.952233
 30
0.0
  0
VERTEX
  8
DEFAULT
  5
329
 10
0.856297
 20
5.955383
 30
0.0
  0
VERTEX
  8
DEFAULT
  5
32A
 10
0.855071
 20
5.958572
 30
0.0
  0
VERTEX
  8
DEFAULT
  5
32B
 10
0.853447
 20
5.961802
 30
0.0
  0
VERTEX
  8
DEFAULT
  5
32C
 10
0.849009
 20
5.968382
 30
0.0
  0
VERTEX
  8
DEFAULT
  5
32D
 10
0.842983
 20
5.975122
 30
0.0
  0
VERTEX
  8
DEFAULT
  5
32E
 10
0.83561
 20
5.981768
 30
0.0
  0
VERTEX
  8
DEFAULT
  5
32F
 10
0.82851
 20
5.986688
 30
0.0
  0
VERTEX
  8
DEFAULT
  5
330
 10
0.825062
 20
5.9885
 30
0.0
  0
VERTEX
  8
DEFAULT
  5
331
 10
0.821682
 20
5.989882
 30
0.0
  0
VERTEX
  8
DEFAULT
  5
332
 10
0.818369
 20
5.990832
 30
0.0
  0
VERTEX
  8
DEFAULT
  5
333
 10
0.815125
 20
5.99135
 30
0.0
  0
VERTEX
  8
DEFAULT
  5
334
 10
0.811983
 20
5.991501
 30
0.0
  0
VERTEX
  8
DEFAULT
  5
335
 10
0.808975
 20
5.991348
 30
0.0
  0
VERTEX
  8
DEFAULT
  5
336
 10
0.806103
 20
5.99089
 30
0.0
  0
VERTEX
  8
DEFAULT
  5
337
 10
0.803366
 20
5.990129
 30
0.0
  0
VERTEX
  8
DEFAULT
  5
338
 10
0.800764
 20
5.989064
 30
0.0
  0
VERTEX
  8
DEFAULT
  5
339
 10
0.798297
 20
5.987695
 30
0.0
  0
VERTEX
  8
DEFAULT
  5
33A
 10
0.795965
 20
5.986022
 30
0.0
  0
VERTEX
  8
DEFAULT
  5
33B
 10
0.793768
 20
5.984045
 30
0.0
  0
VERTEX
  8
DEFAULT
  5
33C
 10
0.79184
 20
5.981905
 30
0.0
  0
VERTEX
  8
DEFAULT
  5
33D
 10
0.790208
 20
5.97964
 30
0.0
  0
VERTEX
  8
DEFAULT
  5
33E
 10
0.788872
 20
5.97725
 30
0.0
  0
VERTEX
  8
DEFAULT
  5
33F
 10
0.787833
 20
5.974734
 30
0.0
  0
VERTEX
  8
DEFAULT
  5
340
 10
0.78709
 20
5.972093
 30
0.0
  0
VERTEX
  8
DEFAULT
  5
341
 10
0.786644
 20
5.969326
 30
0.0
  0
VERTEX
  8
DEFAULT
  5
342
 10
0.786494
 20
5.966433
 30
0.0
  0
VERTEX
  8
DEFAULT
  5
343
 10
0.78664
 20
5.963415
 30
0.0
  0
VERTEX
  8
DEFAULT
  5
344
 10
0.787143
 20
5.960299
 30
0.0
  0
VERTEX
  8
DEFAULT
  5
345
 10
0.788064
 20
5.957115
 30
0.0
  0
VERTEX
  8
DEFAULT
  5
346
 10
0.789402
 20
5.953861
 30
0.0
  0
VERTEX
  8
DEFAULT
  5
347
 10
0.791157
 20
5.950538
 30
0.0
  0
VERTEX
  8
DEFAULT
  5
348
 10
0.79592
 20
5.943685
 30
0.0
  0
VERTEX
  8
DEFAULT
  5
349
 10
0.802353
 20
5.936556
 30
0.0
  0
SEQEND
  8
DEFAULT
  5
34A
  0
POLYLINE
  8
DEFAULT
  5
34B
 66
     1
 10
0.0
 20
0.0
 30
0.0
210
0.0
220
0.0
230
1.0
  0
VERTEX
  8
DEFAULT
  5
34C
 10
0.935824
 20
6.044359
 30
0.0
  0
VERTEX
  8
DEFAULT
  5
34D
 10
0.950395
 20
6.055535
 30
0.0
  0
VERTEX
  8
DEFAULT
  5
34E
 10
0.956584
 20
6.026884
 30
0.0
  0
VERTEX
  8
DEFAULT
  5
34F
 10
0.955916
 20
6.023311
 30
0.0
  0
VERTEX
  8
DEFAULT
  5
350
 10
0.954912
 20
6.019789
 30
0.0
  0
VERTEX
  8
DEFAULT
  5
351
 10
0.951896
 20
6.0129
 30
0.0
  0
VERTEX
  8
DEFAULT
  5
352
 10
0.947537
 20
6.006217
 30
0.0
  0
VERTEX
  8
DEFAULT
  5
353
 10
0.941834
 20
5.99974
 30
0.0
  0
VERTEX
  8
DEFAULT
  5
354
 10
0.933605
 20
5.992747
 30
0.0
  0
VERTEX
  8
DEFAULT
  5
355
 10
0.929338
 20
5.990026
 30
0.0
  0
VERTEX
  8
DEFAULT
  5
356
 10
0.92497
 20
5.987821
 30
0.0
  0
VERTEX
  8
DEFAULT
  5
357
 10
0.920501
 20
5.986134
 30
0.0
  0
VERTEX
  8
DEFAULT
  5
358
 10
0.91593
 20
5.984963
 30
0.0
  0
VERTEX
  8
DEFAULT
  5
359
 10
0.911258
 20
5.984309
 30
0.0
  0
VERTEX
  8
DEFAULT
  5
35A
 10
0.906485
 20
5.984172
 30
0.0
  0
VERTEX
  8
DEFAULT
  5
35B
 10
0.901683
 20
5.984564
 30
0.0
  0
VERTEX
  8
DEFAULT
  5
35C
 10
0.896927
 20
5.9855
 30
0.0
  0
VERTEX
  8
DEFAULT
  5
35D
 10
0.892215
 20
5.986978
 30
0.0
  0
VERTEX
  8
DEFAULT
  5
35E
 10
0.887549
 20
5.988999
 30
0.0
  0
VERTEX
  8
DEFAULT
  5
35F
 10
0.882928
 20
5.991562
 30
0.0
  0
VERTEX
  8
DEFAULT
  5
360
 10
0.878352
 20
5.994668
 30
0.0
  0
VERTEX
  8
DEFAULT
  5
361
 10
0.869336
 20
6.002509
 30
0.0
  0
VERTEX
  8
DEFAULT
  5
362
 10
0.861211
 20
6.011823
 30
0.0
  0
VERTEX
  8
DEFAULT
  5
363
 10
0.857982
 20
6.016538
 30
0.0
  0
VERTEX
  8
DEFAULT
  5
364
 10
0.855308
 20
6.021291
 30
0.0
  0
VERTEX
  8
DEFAULT
  5
365
 10
0.85319
 20
6.026083
 30
0.0
  0
VERTEX
  8
DEFAULT
  5
366
 10
0.851628
 20
6.030914
 30
0.0
  0
VERTEX
  8
DEFAULT
  5
367
 10
0.850621
 20
6.035784
 30
0.0
  0
VERTEX
  8
DEFAULT
  5
368
 10
0.85017
 20
6.040692
 30
0.0
  0
VERTEX
  8
DEFAULT
  5
369
 10
0.850245
 20
6.045548
 30
0.0
  0
VERTEX
  8
DEFAULT
  5
36A
 10
0.850815
 20
6.050262
 30
0.0
  0
VERTEX
  8
DEFAULT
  5
36B
 10
0.85188
 20
6.054834
 30
0.0
  0
VERTEX
  8
DEFAULT
  5
36C
 10
0.853441
 20
6.059264
 30
0.0
  0
VERTEX
  8
DEFAULT
  5
36D
 10
0.855497
 20
6.063552
 30
0.0
  0
VERTEX
  8
DEFAULT
  5
36E
 10
0.858049
 20
6.067697
 30
0.0
  0
VERTEX
  8
DEFAULT
  5
36F
 10
0.861096
 20
6.071701
 30
0.0
  0
VERTEX
  8
DEFAULT
  5
370
 10
0.864638
 20
6.075562
 30
0.0
  0
VERTEX
  8
DEFAULT
  5
371
 10
0.86838
 20
6.078991
 30
0.0
  0
VERTEX
  8
DEFAULT
  5
372
 10
0.872265
 20
6.08194
 30
0.0
  0
VERTEX
  8
DEFAULT
  5
373
 10
0.876296
 20
6.084408
 30
0.0
  0
VERTEX
  8
DEFAULT
  5
374
 10
0.88047
 20
6.086396
 30
0.0
  0
VERTEX
  8
DEFAULT
  5
375
 10
0.88479
 20
6.087903
 30
0.0
  0
VERTEX
  8
DEFAULT
  5
376
 10
0.889253
 20
6.088931
 30
0.0
  0
VERTEX
  8
DEFAULT
  5
377
 10
0.893861
 20
6.089477
 30
0.0
  0
VERTEX
  8
DEFAULT
  5
378
 10
0.898614
 20
6.089544
 30
0.0
  0
VERTEX
  8
DEFAULT
  5
379
 10
0.90342
 20
6.089098
 30
0.0
  0
VERTEX
  8
DEFAULT
  5
37A
 10
0.90819
 20
6.088107
 30
0.0
  0
VERTEX
  8
DEFAULT
  5
37B
 10
0.912924
 20
6.086571
 30
0.0
  0
VERTEX
  8
DEFAULT
  5
37C
 10
0.917621
 20
6.08449
 30
0.0
  0
VERTEX
  8
DEFAULT
  5
37D
 10
0.922281
 20
6.081864
 30
0.0
  0
VERTEX
  8
DEFAULT
  5
37E
 10
0.926906
 20
6.078693
 30
0.0
  0
VERTEX
  8
DEFAULT
  5
37F
 10
0.936045
 20
6.070716
 30
0.0
  0
VERTEX
  8
DEFAULT
  5
380
 10
0.939287
 20
6.067337
 30
0.0
  0
VERTEX
  8
DEFAULT
  5
381
 10
0.884625
 20
6.012676
 30
0.0
  0
VERTEX
  8
DEFAULT
  5
382
 10
0.909928
 20
6.001024
 30
0.0
  0
VERTEX
  8
DEFAULT
  5
383
 10
0.913013
 20
6.001103
 30
0.0
  0
VERTEX
  8
DEFAULT
  5
384
 10
0.915992
 20
6.001477
 30
0.0
  0
VERTEX
  8
DEFAULT
  5
385
 10
0.918865
 20
6.002146
 30
0.0
  0
VERTEX
  8
DEFAULT
  5
386
 10
0.921633
 20
6.00311
 30
0.0
  0
VERTEX
  8
DEFAULT
  5
387
 10
0.924296
 20
6.00437
 30
0.0
  0
VERTEX
  8
DEFAULT
  5
388
 10
0.926853
 20
6.005925
 30
0.0
  0
VERTEX
  8
DEFAULT
  5
389
 10
0.929304
 20
6.007775
 30
0.0
  0
VERTEX
  8
DEFAULT
  5
38A
 10
0.93165
 20
6.00992
 30
0.0
  0
VERTEX
  8
DEFAULT
  5
38B
 10
0.939693
 20
6.025183
 30
0.0
  0
VERTEX
  8
DEFAULT
  5
38C
 10
0.935824
 20
6.044359
 30
0.0
  0
SEQEND
  8
DEFAULT
  5
38D
  0
POLYLINE
  8
DEFAULT
  5
38E
 66
     1
 10
0.0
 20
0.0
 30
0.0
210
0.0
220
0.0
230
1.0
  0
VERTEX
  8
DEFAULT
  5
38F
 10
0.87515
 20
6.023565
 30
0.0
  0
VERTEX
  8
DEFAULT
  5
390
 10
0.916021
 20
6.064436
 30
0.0
  0
VERTEX
  8
DEFAULT
  5
391
 10
0.897448
 20
6.073635
 30
0.0
  0
VERTEX
  8
DEFAULT
  5
392
 10
0.894227
 20
6.073783
 30
0.0
  0
VERTEX
  8
DEFAULT
  5
393
 10
0.891121
 20
6.073596
 30
0.0
  0
VERTEX
  8
DEFAULT
  5
394
 10
0.88813
 20
6.073075
 30
0.0
  0
VERTEX
  8
DEFAULT
  5
395
 10
0.885253
 20
6.072219
 30
0.0
  0
VERTEX
  8
DEFAULT
  5
396
 10
0.882491
 20
6.071029
 30
0.0
  0
VERTEX
  8
DEFAULT
  5
397
 10
0.879844
 20
6.069505
 30
0.0
  0
VERTEX
  8
DEFAULT
  5
398
 10
0.877311
 20
6.067646
 30
0.0
  0
VERTEX
  8
DEFAULT
  5
399
 10
0.874893
 20
6.065453
 30
0.0
  0
VERTEX
  8
DEFAULT
  5
39A
 10
0.866257
 20
6.045348
 30
0.0
  0
VERTEX
  8
DEFAULT
  5
39B
 10
0.87515
 20
6.023565
 30
0.0
  0
SEQEND
  8
DEFAULT
  5
39C
  0
POLYLINE
  8
DEFAULT
  5
39D
 66
     1
 10
0.0
 20
0.0
 30
0.0
210
0.0
220
0.0
230
1.0
  0
VERTEX
  8
DEFAULT
  5
39E
 10
0.988004
 20
6.049021
 30
0.0
  0
VERTEX
  8
DEFAULT
  5
39F
 10
0.914606
 20
6.122419
 30
0.0
  0
VERTEX
  8
DEFAULT
  5
3A0
 10
0.925779
 20
6.133591
 30
0.0
  0
VERTEX
  8
DEFAULT
  5
3A1
 10
0.937022
 20
6.122348
 30
0.0
  0
VERTEX
  8
DEFAULT
  5
3A2
 10
0.934634
 20
6.140577
 30
0.0
  0
VERTEX
  8
DEFAULT
  5
3A3
 10
0.940133
 20
6.151057
 30
0.0
  0
VERTEX
  8
DEFAULT
  5
3A4
 10
0.956863
 20
6.159924
 30
0.0
  0
VERTEX
  8
DEFAULT
  5
3A5
 10
0.963912
 20
6.143997
 30
0.0
  0
VERTEX
  8
DEFAULT
  5
3A6
 10
0.952308
 20
6.137494
 30
0.0
  0
VERTEX
  8
DEFAULT
  5
3A7
 10
0.947487
 20
6.127775
 30
0.0
  0
VERTEX
  8
DEFAULT
  5
3A8
 10
0.949679
 20
6.116378
 30
0.0
  0
VERTEX
  8
DEFAULT
  5
3A9
 10
0.962095
 20
6.09982
 30
0.0
  0
VERTEX
  8
DEFAULT
  5
3AA
 10
1.000449
 20
6.061466
 30
0.0
  0
VERTEX
  8
DEFAULT
  5
3AB
 10
0.988004
 20
6.049021
 30
0.0
  0
SEQEND
  8
DEFAULT
  5
3AC
  0
CIRCLE
  8
DEFAULT
  5
3AD
 10
1.056
 20
0.96
 30
0.0
 40
0.1
210
0.0
220
0.0
230
1.0
  0
CIRCLE
  8
DEFAULT
  5
3AE
 10
1.056
 20
2.46
 30
0.0
 40
0.1
210
0.0
220
0.0
230
1.0
  0
CIRCLE
  8
DEFAULT
  5
3AF
 10
1.056
 20
5.33
 30
0.0
 40
0.1
210
0.0
220
0.0
230
1.0
  0
CIRCLE
  8
DEFAULT
  5
3B0
 10
1.056
 20
3.83
 30
0.0
 40
0.1
210
0.0
220
0.0
230
1.0
  0
CIRCLE
  8
DEFAULT
  5
3B1
 10
3.256
 20
6.03
 30
0.0
 40
0.1
210
0.0
220
0.0
230
1.0
  0
CIRCLE
  8
DEFAULT
  5
3B2
 10
1.756
 20
6.03
 30
0.0
 40
0.1
210
0.0
220
0.0
230
1.0
  0
CIRCLE
  8
DEFAULT
  5
3B3
 10
3.256
 20
0.26
 30
0.0
 40
0.1
210
0.0
220
0.0
230
1.0
  0
CIRCLE
  8
DEFAULT
  5
3B4
 10
1.756
 20
0.26
 30
0.0
 40
0.1
210
0.0
220
0.0
230
1.0
  0
CIRCLE
  8
DEFAULT
  5
3B5
 10
1.9375
 20
1.269819
 30
0.0
 40
0.1
210
0.0
220
0.0
230
1.0
  0
CIRCLE
  8
DEFAULT
  5
3B6
 10
2.6875
 20
1.269819
 30
0.0
 40
0.1
210
0.0
220
0.0
230
1.0
  0
CIRCLE
  8
DEFAULT
  5
3B7
 10
3.4375
 20
1.269819
 30
0.0
 40
0.1
210
0.0
220
0.0
230
1.0
  0
CIRCLE
  8
DEFAULT
  5
3B8
 10
4.1875
 20
1.269819
 30
0.0
 40
0.1
210
0.0
220
0.0
230
1.0
  0
CIRCLE
  8
DEFAULT
  5
3B9
 10
4.9375
 20
1.269819
 30
0.0
 40
0.1
210
0.0
220
0.0
230
1.0
  0
CIRCLE
  8
DEFAULT
  5
3BA
 10
5.6875
 20
1.269819
 30
0.0
 40
0.1
210
0.0
220
0.0
230
1.0
  0
CIRCLE
  8
DEFAULT
  5
3BB
 10
6.4375
 20
1.269819
 30
0.0
 40
0.1
210
0.0
220
0.0
230
1.0
  0
CIRCLE
  8
DEFAULT
  5
3BC
 10
7.1875
 20
1.269819
 30
0.0
 40
0.1
210
0.0
220
0.0
230
1.0
  0
CIRCLE
  8
DEFAULT
  5
3BD
 10
7.9375
 20
1.269819
 30
0.0
 40
0.1
210
0.0
220
0.0
230
1.0
  0
CIRCLE
  8
DEFAULT
  5
3BE
 10
1.9375
 20
2.019819
 30
0.0
 40
0.1
210
0.0
220
0.0
230
1.0
  0
CIRCLE
  8
DEFAULT
  5
3BF
 10
2.6875
 20
2.019819
 30
0.0
 40
0.1
210
0.0
220
0.0
230
1.0
  0
CIRCLE
  8
DEFAULT
  5
3C0
 10
3.4375
 20
2.019819
 30
0.0
 40
0.1
210
0.0
220
0.0
230
1.0
  0
CIRCLE
  8
DEFAULT
  5
3C1
 10
4.1875
 20
2.019819
 30
0.0
 40
0.1
210
0.0
220
0.0
230
1.0
  0
CIRCLE
  8
DEFAULT
  5
3C2
 10
4.9375
 20
2.019819
 30
0.0
 40
0.1
210
0.0
220
0.0
230
1.0
  0
CIRCLE
  8
DEFAULT
  5
3C3
 10
5.6875
 20
2.019819
 30
0.0
 40
0.1
210
0.0
220
0.0
230
1.0
  0
CIRCLE
  8
DEFAULT
  5
3C4
 10
6.4375
 20
2.019819
 30
0.0
 40
0.1
210
0.0
220
0.0
230
1.0
  0
CIRCLE
  8
DEFAULT
  5
3C5
 10
7.1875
 20
2.019819
 30
0.0
 40
0.1
210
0.0
220
0.0
230
1.0
  0
CIRCLE
  8
DEFAULT
  5
3C6
 10
7.9375
 20
2.019819
 30
0.0
 40
0.1
210
0.0
220
0.0
230
1.0
  0
CIRCLE
  8
DEFAULT
  5
3C7
 10
1.9375
 20
2.769819
 30
0.0
 40
0.1
210
0.0
220
0.0
230
1.0
  0
CIRCLE
  8
DEFAULT
  5
3C8
 10
2.6875
 20
2.769819
 30
0.0
 40
0.1
210
0.0
220
0.0
230
1.0
  0
CIRCLE
  8
DEFAULT
  5
3C9
 10
3.4375
 20
2.769819
 30
0.0
 40
0.1
210
0.0
220
0.0
230
1.0
  0
CIRCLE
  8
DEFAULT
  5
3CA
 10
4.1875
 20
2.769819
 30
0.0
 40
0.1
210
0.0
220
0.0
230
1.0
  0
CIRCLE
  8
DEFAULT
  5
3CB
 10
4.9375
 20
2.769819
 30
0.0
 40
0.1
210
0.0
220
0.0
230
1.0
  0
CIRCLE
  8
DEFAULT
  5
3CC
 10
5.6875
 20
2.769819
 30
0.0
 40
0.1
210
0.0
220
0.0
230
1.0
  0
CIRCLE
  8
DEFAULT
  5
3CD
 10
6.4375
 20
2.769819
 30
0.0
 40
0.1
210
0.0
220
0.0
230
1.0
  0
CIRCLE
  8
DEFAULT
  5
3CE
 10
7.1875
 20
2.769819
 30
0.0
 40
0.1
210
0.0
220
0.0
230
1.0
  0
CIRCLE
  8
DEFAULT
  5
3CF
 10
7.9375
 20
2.769819
 30
0.0
 40
0.1
210
0.0
220
0.0
230
1.0
  0
CIRCLE
  8
DEFAULT
  5
3D0
 10
1.9375
 20
3.519819
 30
0.0
 40
0.1
210
0.0
220
0.0
230
1.0
  0
CIRCLE
  8
DEFAULT
  5
3D1
 10
2.6875
 20
3.519819
 30
0.0
 40
0.1
210
0.0
220
0.0
230
1.0
  0
CIRCLE
  8
DEFAULT
  5
3D2
 10
3.4375
 20
3.519819
 30
0.0
 40
0.1
210
0.0
220
0.0
230
1.0
  0
CIRCLE
  8
DEFAULT
  5
3D3
 10
4.1875
 20
3.519819
 30
0.0
 40
0.1
210
0.0
220
0.0
230
1.0
  0
CIRCLE
  8
DEFAULT
  5
3D4
 10
4.9375
 20
3.519819
 30
0.0
 40
0.1
210
0.0
220
0.0
230
1.0
  0
CIRCLE
  8
DEFAULT
  5
3D5
 10
5.6875
 20
3.519819
 30
0.0
 40
0.1
210
0.0
220
0.0
230
1.0
  0
CIRCLE
  8
DEFAULT
  5
3D6
 10
6.4375
 20
3.519819
 30
0.0
 40
0.1
210
0.0
220
0.0
230
1.0
  0
CIRCLE
  8
DEFAULT
  5
3D7
 10
7.1875
 20
3.519819
 30
0.0
 40
0.1
210
0.0
220
0.0
230
1.0
  0
CIRCLE
  8
DEFAULT
  5
3D8
 10
7.9375
 20
3.519819
 30
0.0
 40
0.1
210
0.0
220
0.0
230
1.0
  0
CIRCLE
  8
DEFAULT
  5
3D9
 10
1.9375
 20
4.269819
 30
0.0
 40
0.1
210
0.0
220
0.0
230
1.0
  0
CIRCLE
  8
DEFAULT
  5
3DA
 10
2.6875
 20
4.269819
 30
0.0
 40
0.1
210
0.0
220
0.0
230
1.0
  0
CIRCLE
  8
DEFAULT
  5
3DB
 10
3.4375
 20
4.269819
 30
0.0
 40
0.1
210
0.0
220
0.0
230
1.0
  0
CIRCLE
  8
DEFAULT
  5
3DC
 10
4.1875
 20
4.269819
 30
0.0
 40
0.1
210
0.0
220
0.0
230
1.0
  0
CIRCLE
  8
DEFAULT
  5
3DD
 10
4.9375
 20
4.269819
 30
0.0
 40
0.1
210
0.0
220
0.0
230
1.0
  0
CIRCLE
  8
DEFAULT
  5
3DE
 10
5.6875
 20
4.269819
 30
0.0
 40
0.1
210
0.0
220
0.0
230
1.0
  0
CIRCLE
  8
DEFAULT
  5
3DF
 10
6.4375
 20
4.269819
 30
0.0
 40
0.1
210
0.0
220
0.0
230
1.0
  0
CIRCLE
  8
DEFAULT
  5
3E0
 10
7.1875
 20
4.269819
 30
0.0
 40
0.1
210
0.0
220
0.0
230
1.0
  0
CIRCLE
  8
DEFAULT
  5
3E1
 10
7.9375
 20
4.269819
 30
0.0
 40
0.1
210
0.0
220
0.0
230
1.0
  0
CIRCLE
  8
DEFAULT
  5
3E2
 10
1.9375
 20
5.019819
 30
0.0
 40
0.1
210
0.0
220
0.0
230
1.0
  0
CIRCLE
  8
DEFAULT
  5
3E3
 10
2.6875
 20
5.019819
 30
0.0
 40
0.1
210
0.0
220
0.0
230
1.0
  0
CIRCLE
  8
DEFAULT
  5
3E4
 10
3.4375
 20
5.019819
 30
0.0
 40
0.1
210
0.0
220
0.0
230
1.0
  0
CIRCLE
  8
DEFAULT
  5
3E5
 10
4.1875
 20
5.019819
 30
0.0
 40
0.1
210
0.0
220
0.0
230
1.0
  0
CIRCLE
  8
DEFAULT
  5
3E6
 10
4.9375
 20
5.019819
 30
0.0
 40
0.1
210
0.0
220
0.0
230
1.0
  0
CIRCLE
  8
DEFAULT
  5
3E7
 10
5.6875
 20
5.019819
 30
0.0
 40
0.1
210
0.0
220
0.0
230
1.0
  0
CIRCLE
  8
DEFAULT
  5
3E8
 10
6.4375
 20
5.019819
 30
0.0
 40
0.1
210
0.0
220
0.0
230
1.0
  0
CIRCLE
  8
DEFAULT
  5
3E9
 10
7.1875
 20
5.019819
 30
0.0
 40
0.1
210
0.0
220
0.0
230
1.0
  0
CIRCLE
  8
DEFAULT
  5
3EA
 10
7.9375
 20
5.019819
 30
0.0
 40
0.1
210
0.0
220
0.0
230
1.0
  0
CIRCLE
  8
DEFAULT
  5
3EB
 10
9.4825
 20
0.39626
 30
0.0
 40
0.07874
210
0.0
220
0.0
230
1.0
  0
CIRCLE
  8
DEFAULT
  5
3EC
 10
0.3925
 20
0.39626
 30
0.0
 40
0.07874
210
0.0
220
0.0
230
1.0
  0
POLYLINE
  8
DEFAULT
  5
3ED
 66
     1
 10
0.0
 20
0.0
 30
0.0
210
0.0
220
0.0
230
1.0
  0
VERTEX
  8
DEFAULT
  5
3EE
 10
9.835
 20
0.125
 30
0.0
  0
VERTEX
  8
DEFAULT
  5
3EF
 10
9.835
 20
5.725
 30
0.0
 42
0.414214
  0
VERTEX
  8
DEFAULT
  5
3F0
 10
9.75
 20
5.81
 30
0.0
  0
VERTEX
  8
DEFAULT
  5
3F1
 10
9.445
 20
5.81
 30
0.0
 42
-0.414214
  0
VERTEX
  8
DEFAULT
  5
3F2
 10
9.405
 20
5.85
 30
0.0
  0
VERTEX
  8
DEFAULT
  5
3F3
 10
9.405
 20
6.125
 30
0.0
 42
0.414214
  0
VERTEX
  8
DEFAULT
  5
3F4
 10
9.32
 20
6.21
 30
0.0
  0
VERTEX
  8
DEFAULT
  5
3F5
 10
0.555
 20
6.21
 30
0.0
 42
0.414214
  0
VERTEX
  8
DEFAULT
  5
3F6
 10
0.47
 20
6.125
 30
0.0
  0
VERTEX
  8
DEFAULT
  5
3F7
 10
0.47
 20
5.85
 30
0.0
 42
-0.414214
  0
VERTEX
  8
DEFAULT
  5
3F8
 10
0.43
 20
5.81
 30
0.0
  0
VERTEX
  8
DEFAULT
  5
3F9
 10
0.125
 20
5.81
 30
0.0
 42
0.414214
  0
VERTEX
  8
DEFAULT
  5
3FA
 10
0.04
 20
5.725
 30
0.0
  0
VERTEX
  8
DEFAULT
  5
3FB
 10
0.04
 20
0.125
 30
0.0
 42
0.414214
  0
VERTEX
  8
DEFAULT
  5
3FC
 10
0.125
 20
0.04
 30
0.0
  0
VERTEX
  8
DEFAULT
  5
3FD
 10
9.75
 20
0.04
 30
0.0
 42
0.414214
  0
VERTEX
  8
DEFAULT
  5
3FE
 10
9.835
 20
0.125
 30
0.0
  0
SEQEND
  8
DEFAULT
  5
3FF
  0
POLYLINE
  8
DEFAULT
  5
400
 66
     1
 10
0.0
 20
0.0
 30
0.0
210
0.0
220
0.0
230
1.0
  0
VERTEX
  8
DEFAULT
  5
401
 10
9.425405
 20
5.599057
 30
0.0
  0
VERTEX
  8
DEFAULT
  5
402
 10
9.711805
 20
5.599057
 30
0.0
  0
VERTEX
  8
DEFAULT
  5
403
 10
9.711805
 20
5.542226
 30
0.0
  0
VERTEX
  8
DEFAULT
  5
404
 10
9.509068
 20
5.474514
 30
0.0
  0
VERTEX
  8
DEFAULT
  5
405
 10
9.466687
 20
5.460857
 30
0.0
  0
VERTEX
  8
DEFAULT
  5
406
 10
9.512587
 20
5.445532
 30
0.0
  0
VERTEX
  8
DEFAULT
  5
407
 10
9.711805
 20
5.37657
 30
0.0
  0
VERTEX
  8
DEFAULT
  5
408
 10
9.711805
 20
5.325857
 30
0.0
  0
VERTEX
  8
DEFAULT
  5
409
 10
9.425405
 20
5.325857
 30
0.0
  0
VERTEX
  8
DEFAULT
  5
40A
 10
9.425405
 20
5.362257
 30
0.0
  0
VERTEX
  8
DEFAULT
  5
40B
 10
9.665005
 20
5.362257
 30
0.0
  0
VERTEX
  8
DEFAULT
  5
40C
 10
9.425405
 20
5.445864
 30
0.0
  0
VERTEX
  8
DEFAULT
  5
40D
 10
9.425405
 20
5.480001
 30
0.0
  0
VERTEX
  8
DEFAULT
  5
40E
 10
9.669405
 20
5.562657
 30
0.0
  0
VERTEX
  8
DEFAULT
  5
40F
 10
9.425405
 20
5.562657
 30
0.0
  0
VERTEX
  8
DEFAULT
  5
410
 10
9.425405
 20
5.599057
 30
0.0
  0
SEQEND
  8
DEFAULT
  5
411
  0
POLYLINE
  8
DEFAULT
  5
412
 66
     1
 10
0.0
 20
0.0
 30
0.0
210
0.0
220
0.0
230
1.0
  0
VERTEX
  8
DEFAULT
  5
413
 10
9.529205
 20
5.282657
 30
0.0
  0
VERTEX
  8
DEFAULT
  5
414
 10
9.556097
 20
5.280655
 30
0.0
  0
VERTEX
  8
DEFAULT
  5
415
 10
9.568145
 20
5.278151
 30
0.0
  0
VERTEX
  8
DEFAULT
  5
416
 10
9.57926
 20
5.274646
 30
0.0
  0
VERTEX
  8
DEFAULT
  5
417
 10
9.589443
 20
5.27014
 30
0.0
  0
VERTEX
  8
DEFAULT
  5
418
 10
9.598694
 20
5.264633
 30
0.0
  0
VERTEX
  8
DEFAULT
  5
419
 10
9.607013
 20
5.258124
 30
0.0
  0
VERTEX
  8
DEFAULT
  5
41A
 10
9.614399
 20
5.250614
 30
0.0
  0
VERTEX
  8
DEFAULT
  5
41B
 10
9.619791
 20
5.24374
 30
0.0
  0
VERTEX
  8
DEFAULT
  5
41C
 10
9.624464
 20
5.236499
 30
0.0
  0
VERTEX
  8
DEFAULT
  5
41D
 10
9.628419
 20
5.228892
 30
0.0
  0
VERTEX
  8
DEFAULT
  5
41E
 10
9.631654
 20
5.220918
 30
0.0
  0
VERTEX
  8
DEFAULT
  5
41F
 10
9.63417
 20
5.212578
 30
0.0
  0
VERTEX
  8
DEFAULT
  5
420
 10
9.635968
 20
5.203871
 30
0.0
  0
VERTEX
  8
DEFAULT
  5
421
 10
9.637405
 20
5.185357
 30
0.0
  0
VERTEX
  8
DEFAULT
  5
422
 10
9.636968
 20
5.174905
 30
0.0
  0
VERTEX
  8
DEFAULT
  5
423
 10
9.635657
 20
5.16494
 30
0.0
  0
VERTEX
  8
DEFAULT
  5
424
 10
9.633471
 20
5.155465
 30
0.0
  0
VERTEX
  8
DEFAULT
  5
425
 10
9.630412
 20
5.146478
 30
0.0
  0
VERTEX
  8
DEFAULT
  5
426
 10
9.626478
 20
5.137979
 30
0.0
  0
VERTEX
  8
DEFAULT
  5
427
 10
9.62167
 20
5.129969
 30
0.0
  0
VERTEX
  8
DEFAULT
  5
428
 10
9.615987
 20
5.122447
 30
0.0
  0
VERTEX
  8
DEFAULT
  5
429
 10
9.60943
 20
5.115414
 30
0.0
  0
VERTEX
  8
DEFAULT
  5
42A
 10
9.602103
 20
5.109049
 30
0.0
  0
VERTEX
  8
DEFAULT
  5
42B
 10
9.594109
 20
5.103533
 30
0.0
  0
VERTEX
  8
DEFAULT
  5
42C
 10
9.585447
 20
5.098865
 30
0.0
  0
VERTEX
  8
DEFAULT
  5
42D
 10
9.576118
 20
5.095046
 30
0.0
  0
VERTEX
  8
DEFAULT
  5
42E
 10
9.566122
 20
5.092076
 30
0.0
  0
VERTEX
  8
DEFAULT
  5
42F
 10
9.555459
 20
5.089955
 30
0.0
  0
VERTEX
  8
DEFAULT
  5
430
 10
9.53213
 20
5.088257
 30
0.0
  0
VERTEX
  8
DEFAULT
  5
431
 10
9.513213
 20
5.089008
 30
0.0
  0
VERTEX
  8
DEFAULT
  5
432
 10
9.496427
 20
5.091261
 30
0.0
  0
VERTEX
  8
DEFAULT
  5
433
 10
9.481775
 20
5.095016
 30
0.0
  0
VERTEX
  8
DEFAULT
  5
434
 10
9.469255
 20
5.100273
 30
0.0
  0
VERTEX
  8
DEFAULT
  5
435
 10
9.458442
 20
5.106965
 30
0.0
  0
VERTEX
  8
DEFAULT
  5
436
 10
9.448908
 20
5.115024
 30
0.0
  0
VERTEX
  8
DEFAULT
  5
437
 10
9.440653
 20
5.12445
 30
0.0
  0
VERTEX
  8
DEFAULT
  5
438
 10
9.433677
 20
5.135245
 30
0.0
  0
VERTEX
  8
DEFAULT
  5
439
 10
9.428133
 20
5.146985
 30
0.0
  0
VERTEX
  8
DEFAULT
  5
43A
 10
9.424173
 20
5.159251
 30
0.0
  0
VERTEX
  8
DEFAULT
  5
43B
 10
9.421797
 20
5.172042
 30
0.0
  0
VERTEX
  8
DEFAULT
  5
43C
 10
9.421005
 20
5.185357
 30
0.0
  0
VERTEX
  8
DEFAULT
  5
43D
 10
9.421441
 20
5.195988
 30
0.0
  0
VERTEX
  8
DEFAULT
  5
43E
 10
9.422748
 20
5.206098
 30
0.0
  0
VERTEX
  8
DEFAULT
  5
43F
 10
9.424926
 20
5.215685
 30
0.0
  0
VERTEX
  8
DEFAULT
  5
440
 10
9.427975
 20
5.22475
 30
0.0
  0
VERTEX
  8
DEFAULT
  5
441
 10
9.431895
 20
5.233294
 30
0.0
  0
VERTEX
  8
DEFAULT
  5
442
 10
9.436687
 20
5.241315
 30
0.0
  0
VERTEX
  8
DEFAULT
  5
443
 10
9.44235
 20
5.248814
 30
0.0
  0
VERTEX
  8
DEFAULT
  5
444
 10
9.448884
 20
5.255792
 30
0.0
  0
VERTEX
  8
DEFAULT
  5
445
 10
9.456237
 20
5.262088
 30
0.0
  0
VERTEX
  8
DEFAULT
  5
446
 10
9.464358
 20
5.267545
 30
0.0
  0
VERTEX
  8
DEFAULT
  5
447
 10
9.473247
 20
5.272163
 30
0.0
  0
VERTEX
  8
DEFAULT
  5
448
 10
9.482903
 20
5.275941
 30
0.0
  0
VERTEX
  8
DEFAULT
  5
449
 10
9.493327
 20
5.278879
 30
0.0
  0
VERTEX
  8
DEFAULT
  5
44A
 10
9.504519
 20
5.280978
 30
0.0
  0
VERTEX
  8
DEFAULT
  5
44B
 10
9.529205
 20
5.282657
 30
0.0
  0
SEQEND
  8
DEFAULT
  5
44C
  0
POLYLINE
  8
DEFAULT
  5
44D
 66
     1
 10
0.0
 20
0.0
 30
0.0
210
0.0
220
0.0
230
1.0
  0
VERTEX
  8
DEFAULT
  5
44E
 10
9.529105
 20
5.246657
 30
0.0
  0
VERTEX
  8
DEFAULT
  5
44F
 10
9.510479
 20
5.245568
 30
0.0
  0
VERTEX
  8
DEFAULT
  5
450
 10
9.494349
 20
5.242299
 30
0.0
  0
VERTEX
  8
DEFAULT
  5
451
 10
9.487221
 20
5.239848
 30
0.0
  0
VERTEX
  8
DEFAULT
  5
452
 10
9.480716
 20
5.236852
 30
0.0
  0
VERTEX
  8
DEFAULT
  5
453
 10
9.474836
 20
5.233311
 30
0.0
  0
VERTEX
  8
DEFAULT
  5
454
 10
9.46958
 20
5.229226
 30
0.0
  0
VERTEX
  8
DEFAULT
  5
455
 10
9.464946
 20
5.224727
 30
0.0
  0
VERTEX
  8
DEFAULT
  5
456
 10
9.460929
 20
5.219948
 30
0.0
  0
VERTEX
  8
DEFAULT
  5
457
 10
9.45753
 20
5.214886
 30
0.0
  0
VERTEX
  8
DEFAULT
  5
458
 10
9.454749
 20
5.209543
 30
0.0
  0
VERTEX
  8
DEFAULT
  5
459
 10
9.452586
 20
5.203919
 30
0.0
  0
VERTEX
  8
DEFAULT
  5
45A
 10
9.451041
 20
5.198013
 30
0.0
  0
VERTEX
  8
DEFAULT
  5
45B
 10
9.450114
 20
5.191826
 30
0.0
  0
VERTEX
  8
DEFAULT
  5
45C
 10
9.449805
 20
5.185357
 30
0.0
  0
VERTEX
  8
DEFAULT
  5
45D
 10
9.450116
 20
5.178936
 30
0.0
  0
VERTEX
  8
DEFAULT
  5
45E
 10
9.451047
 20
5.172789
 30
0.0
  0
VERTEX
  8
DEFAULT
  5
45F
 10
9.4526
 20
5.166918
 30
0.0
  0
VERTEX
  8
DEFAULT
  5
460
 10
9.454773
 20
5.161321
 30
0.0
  0
VERTEX
  8
DEFAULT
  5
461
 10
9.457568
 20
5.156
 30
0.0
  0
VERTEX
  8
DEFAULT
  5
462
 10
9.460983
 20
5.150955
 30
0.0
  0
VERTEX
  8
DEFAULT
  5
463
 10
9.46502
 20
5.146184
 30
0.0
  0
VERTEX
  8
DEFAULT
  5
464
 10
9.469677
 20
5.141689
 30
0.0
  0
VERTEX
  8
DEFAULT
  5
465
 10
9.474971
 20
5.137603
 30
0.0
  0
VERTEX
  8
DEFAULT
  5
466
 10
9.480917
 20
5.134062
 30
0.0
  0
VERTEX
  8
DEFAULT
  5
467
 10
9.487514
 20
5.131066
 30
0.0
  0
VERTEX
  8
DEFAULT
  5
468
 10
9.494763
 20
5.128615
 30
0.0
  0
VERTEX
  8
DEFAULT
  5
469
 10
9.511215
 20
5.125347
 30
0.0
  0
VERTEX
  8
DEFAULT
  5
46A
 10
9.530274
 20
5.124257
 30
0.0
  0
VERTEX
  8
DEFAULT
  5
46B
 10
9.548302
 20
5.125353
 30
0.0
  0
VERTEX
  8
DEFAULT
  5
46C
 10
9.564004
 20
5.128639
 30
0.0
  0
VERTEX
  8
DEFAULT
  5
46D
 10
9.570983
 20
5.131104
 30
0.0
  0
VERTEX
  8
DEFAULT
  5
46E
 10
9.57738
 20
5.134117
 30
0.0
  0
VERTEX
  8
DEFAULT
  5
46F
 10
9.583196
 20
5.137677
 30
0.0
  0
VERTEX
  8
DEFAULT
  5
470
 10
9.58843
 20
5.141785
 30
0.0
  0
VERTEX
  8
DEFAULT
  5
471
 10
9.593065
 20
5.1463
 30
0.0
  0
VERTEX
  8
DEFAULT
  5
472
 10
9.597082
 20
5.151082
 30
0.0
  0
VERTEX
  8
DEFAULT
  5
473
 10
9.600481
 20
5.156129
 30
0.0
  0
VERTEX
  8
DEFAULT
  5
474
 10
9.603262
 20
5.161442
 30
0.0
  0
VERTEX
  8
DEFAULT
  5
475
 10
9.605425
 20
5.167022
 30
0.0
  0
VERTEX
  8
DEFAULT
  5
476
 10
9.60697
 20
5.172868
 30
0.0
  0
VERTEX
  8
DEFAULT
  5
477
 10
9.607896
 20
5.178979
 30
0.0
  0
VERTEX
  8
DEFAULT
  5
478
 10
9.608205
 20
5.185357
 30
0.0
  0
VERTEX
  8
DEFAULT
  5
479
 10
9.607898
 20
5.191826
 30
0.0
  0
VERTEX
  8
DEFAULT
  5
47A
 10
9.606976
 20
5.198013
 30
0.0
  0
VERTEX
  8
DEFAULT
  5
47B
 10
9.605438
 20
5.203919
 30
0.0
  0
VERTEX
  8
DEFAULT
  5
47C
 10
9.603286
 20
5.209543
 30
0.0
  0
VERTEX
  8
DEFAULT
  5
47D
 10
9.600519
 20
5.214886
 30
0.0
  0
VERTEX
  8
DEFAULT
  5
47E
 10
9.597137
 20
5.219948
 30
0.0
  0
VERTEX
  8
DEFAULT
  5
47F
 10
9.593139
 20
5.224727
 30
0.0
  0
VERTEX
  8
DEFAULT
  5
480
 10
9.588527
 20
5.229226
 30
0.0
  0
VERTEX
  8
DEFAULT
  5
481
 10
9.583294
 20
5.233311
 30
0.0
  0
VERTEX
  8
DEFAULT
  5
482
 10
9.577434
 20
5.236852
 30
0.0
  0
VERTEX
  8
DEFAULT
  5
483
 10
9.570947
 20
5.239848
 30
0.0
  0
VERTEX
  8
DEFAULT
  5
484
 10
9.563833
 20
5.242299
 30
0.0
  0
VERTEX
  8
DEFAULT
  5
485
 10
9.547723
 20
5.245568
 30
0.0
  0
VERTEX
  8
DEFAULT
  5
486
 10
9.529105
 20
5.246657
 30
0.0
  0
SEQEND
  8
DEFAULT
  5
487
  0
POLYLINE
  8
DEFAULT
  5
488
 66
     1
 10
0.0
 20
0.0
 30
0.0
210
0.0
220
0.0
230
1.0
  0
VERTEX
  8
DEFAULT
  5
489
 10
9.425405
 20
4.913057
 30
0.0
  0
VERTEX
  8
DEFAULT
  5
48A
 10
9.451749
 20
4.913057
 30
0.0
  0
VERTEX
  8
DEFAULT
  5
48B
 10
9.444544
 20
4.918277
 30
0.0
  0
VERTEX
  8
DEFAULT
  5
48C
 10
9.438299
 20
4.924076
 30
0.0
  0
VERTEX
  8
DEFAULT
  5
48D
 10
9.433015
 20
4.930454
 30
0.0
  0
VERTEX
  8
DEFAULT
  5
48E
 10
9.428691
 20
4.937412
 30
0.0
  0
VERTEX
  8
DEFAULT
  5
48F
 10
9.425329
 20
4.944949
 30
0.0
  0
VERTEX
  8
DEFAULT
  5
490
 10
9.422927
 20
4.953066
 30
0.0
  0
VERTEX
  8
DEFAULT
  5
491
 10
9.421486
 20
4.961763
 30
0.0
  0
VERTEX
  8
DEFAULT
  5
492
 10
9.421005
 20
4.971039
 30
0.0
  0
VERTEX
  8
DEFAULT
  5
493
 10
9.421858
 20
4.983185
 30
0.0
  0
VERTEX
  8
DEFAULT
  5
494
 10
9.424417
 20
4.994832
 30
0.0
  0
VERTEX
  8
DEFAULT
  5
495
 10
9.428682
 20
5.005977
 30
0.0
  0
VERTEX
  8
DEFAULT
  5
496
 10
9.434652
 20
5.016623
 30
0.0
  0
VERTEX
  8
DEFAULT
  5
497
 10
9.442152
 20
5.026433
 30
0.0
  0
VERTEX
  8
DEFAULT
  5
498
 10
9.451004
 20
5.035071
 30
0.0
  0
VERTEX
  8
DEFAULT
  5
499
 10
9.461208
 20
5.042539
 30
0.0
  0
VERTEX
  8
DEFAULT
  5
49A
 10
9.472765
 20
5.048835
 30
0.0
  0
VERTEX
  8
DEFAULT
  5
49B
 10
9.485455
 20
5.053832
 30
0.0
  0
VERTEX
  8
DEFAULT
  5
49C
 10
9.499059
 20
5.057402
 30
0.0
  0
VERTEX
  8
DEFAULT
  5
49D
 10
9.513578
 20
5.059543
 30
0.0
  0
VERTEX
  8
DEFAULT
  5
49E
 10
9.529012
 20
5.060257
 30
0.0
  0
VERTEX
  8
DEFAULT
  5
49F
 10
9.544149
 20
5.059611
 30
0.0
  0
VERTEX
  8
DEFAULT
  5
4A0
 10
9.558569
 20
5.057671
 30
0.0
  0
VERTEX
  8
DEFAULT
  5
4A1
 10
9.57227
 20
5.054439
 30
0.0
  0
VERTEX
  8
DEFAULT
  5
4A2
 10
9.585252
 20
5.049914
 30
0.0
  0
VERTEX
  8
DEFAULT
  5
4A3
 10
9.597139
 20
5.044095
 30
0.0
  0
VERTEX
  8
DEFAULT
  5
4A4
 10
9.607551
 20
5.036985
 30
0.0
  0
VERTEX
  8
DEFAULT
  5
4A5
 10
9.616489
 20
5.028581
 30
0.0
  0
VERTEX
  8
DEFAULT
  5
4A6
 10
9.623952
 20
5.018885
 30
0.0
  0
VERTEX
  8
DEFAULT
  5
4A7
 10
9.629838
 20
5.008238
 30
0.0
  0
VERTEX
  8
DEFAULT
  5
4A8
 10
9.634042
 20
4.996982
 30
0.0
  0
VERTEX
  8
DEFAULT
  5
4A9
 10
9.636565
 20
4.985115
 30
0.0
  0
VERTEX
  8
DEFAULT
  5
4AA
 10
9.637405
 20
4.972639
 30
0.0
  0
VERTEX
  8
DEFAULT
  5
4AB
 10
9.629468
 20
4.939267
 30
0.0
  0
VERTEX
  8
DEFAULT
  5
4AC
 10
9.608793
 20
4.915457
 30
0.0
  0
VERTEX
  8
DEFAULT
  5
4AD
 10
9.711805
 20
4.915457
 30
0.0
  0
VERTEX
  8
DEFAULT
  5
4AE
 10
9.711805
 20
4.880257
 30
0.0
  0
VERTEX
  8
DEFAULT
  5
4AF
 10
9.425405
 20
4.880257
 30
0.0
  0
VERTEX
  8
DEFAULT
  5
4B0
 10
9.425405
 20
4.913057
 30
0.0
  0
SEQEND
  8
DEFAULT
  5
4B1
  0
POLYLINE
  8
DEFAULT
  5
4B2
 66
     1
 10
0.0
 20
0.0
 30
0.0
210
0.0
220
0.0
230
1.0
  0
VERTEX
  8
DEFAULT
  5
4B3
 10
9.528905
 20
5.024257
 30
0.0
  0
VERTEX
  8
DEFAULT
  5
4B4
 10
9.510288
 20
5.023205
 30
0.0
  0
VERTEX
  8
DEFAULT
  5
4B5
 10
9.494178
 20
5.020047
 30
0.0
  0
VERTEX
  8
DEFAULT
  5
4B6
 10
9.487064
 20
5.017679
 30
0.0
  0
VERTEX
  8
DEFAULT
  5
4B7
 10
9.480577
 20
5.014784
 30
0.0
  0
VERTEX
  8
DEFAULT
  5
4B8
 10
9.474717
 20
5.011364
 30
0.0
  0
VERTEX
  8
DEFAULT
  5
4B9
 10
9.469484
 20
5.007417
 30
0.0
  0
VERTEX
  8
DEFAULT
  5
4BA
 10
9.464872
 20
5.003112
 30
0.0
  0
VERTEX
  8
DEFAULT
  5
4BB
 10
9.460874
 20
4.998617
 30
0.0
  0
VERTEX
  8
DEFAULT
  5
4BC
 10
9.457492
 20
4.993933
 30
0.0
  0
VERTEX
  8
DEFAULT
  5
4BD
 10
9.454725
 20
4.98906
 30
0.0
  0
VERTEX
  8
DEFAULT
  5
4BE
 10
9.452573
 20
4.983996
 30
0.0
  0
VERTEX
  8
DEFAULT
  5
4BF
 10
9.451035
 20
4.978744
 30
0.0
  0
VERTEX
  8
DEFAULT
  5
4C0
 10
9.450113
 20
4.973302
 30
0.0
  0
VERTEX
  8
DEFAULT
  5
4C1
 10
9.449805
 20
4.96767
 30
0.0
  0
VERTEX
  8
DEFAULT
  5
4C2
 10
9.450099
 20
4.962002
 30
0.0
  0
VERTEX
  8
DEFAULT
  5
4C3
 10
9.45098
 20
4.956551
 30
0.0
  0
VERTEX
  8
DEFAULT
  5
4C4
 10
9.452449
 20
4.951318
 30
0.0
  0
VERTEX
  8
DEFAULT
  5
4C5
 10
9.454505
 20
4.946302
 30
0.0
  0
VERTEX
  8
DEFAULT
  5
4C6
 10
9.457149
 20
4.941503
 30
0.0
  0
VERTEX
  8
DEFAULT
  5
4C7
 10
9.46038
 20
4.936922
 30
0.0
  0
VERTEX
  8
DEFAULT
  5
4C8
 10
9.464199
 20
4.932557
 30
0.0
  0
VERTEX
  8
DEFAULT
  5
4C9
 10
9.468605
 20
4.92841
 30
0.0
  0
VERTEX
  8
DEFAULT
  5
4CA
 10
9.473615
 20
4.924625
 30
0.0
  0
VERTEX
  8
DEFAULT
  5
4CB
 10
9.479242
 20
4.921343
 30
0.0
  0
VERTEX
  8
DEFAULT
  5
4CC
 10
9.485487
 20
4.918567
 30
0.0
  0
VERTEX
  8
DEFAULT
  5
4CD
 10
9.492351
 20
4.916296
 30
0.0
  0
VERTEX
  8
DEFAULT
  5
4CE
 10
9.507932
 20
4.913267
 30
0.0
  0
VERTEX
  8
DEFAULT
  5
4CF
 10
9.525987
 20
4.912257
 30
0.0
  0
VERTEX
  8
DEFAULT
  5
4D0
 10
9.545812
 20
4.913285
 30
0.0
  0
VERTEX
  8
DEFAULT
  5
4D1
 10
9.562811
 20
4.916369
 30
0.0
  0
VERTEX
  8
DEFAULT
  5
4D2
 10
9.570251
 20
4.918682
 30
0.0
  0
VERTEX
  8
DEFAULT
  5
4D3
 10
9.576985
 20
4.921509
 30
0.0
  0
VERTEX
  8
DEFAULT
  5
4D4
 10
9.583012
 20
4.924849
 30
0.0
  0
VERTEX
  8
DEFAULT
  5
4D5
 10
9.588334
 20
4.928704
 30
0.0
  0
VERTEX
  8
DEFAULT
  5
4D6
 10
9.592991
 20
4.932935
 30
0.0
  0
VERTEX
  8
DEFAULT
  5
4D7
 10
9.597028
 20
4.937405
 30
0.0
  0
VERTEX
  8
DEFAULT
  5
4D8
 10
9.600443
 20
4.942114
 30
0.0
  0
VERTEX
  8
DEFAULT
  5
4D9
 10
9.603238
 20
4.947061
 30
0.0
  0
VERTEX
  8
DEFAULT
  5
4DA
 10
9.605411
 20
4.952247
 30
0.0
  0
VERTEX
  8
DEFAULT
  5
4DB
 10
9.606963
 20
4.957672
 30
0.0
  0
VERTEX
  8
DEFAULT
  5
4DC
 10
9.607895
 20
4.963336
 30
0.0
  0
VERTEX
  8
DEFAULT
  5
4DD
 10
9.608205
 20
4.969239
 30
0.0
  0
VERTEX
  8
DEFAULT
  5
4DE
 10
9.607907
 20
4.974991
 30
0.0
  0
VERTEX
  8
DEFAULT
  5
4DF
 10
9.607012
 20
4.980502
 30
0.0
  0
VERTEX
  8
DEFAULT
  5
4E0
 10
9.60552
 20
4.985772
 30
0.0
  0
VERTEX
  8
DEFAULT
  5
4E1
 10
9.603432
 20
4.990799
 30
0.0
  0
VERTEX
  8
DEFAULT
  5
4E2
 10
9.600747
 20
4.995586
 30
0.0
  0
VERTEX
  8
DEFAULT
  5
4E3
 10
9.597465
 20
5.00013
 30
0.0
  0
VERTEX
  8
DEFAULT
  5
4E4
 10
9.593587
 20
5.004433
 30
0.0
  0
VERTEX
  8
DEFAULT
  5
4E5
 10
9.589112
 20
5.008495
 30
0.0
  0
VERTEX
  8
DEFAULT
  5
4E6
 10
9.583994
 20
5.012189
 30
0.0
  0
VERTEX
  8
DEFAULT
  5
4E7
 10
9.578189
 20
5.015391
 30
0.0
  0
VERTEX
  8
DEFAULT
  5
4E8
 10
9.571695
 20
5.0181
 30
0.0
  0
VERTEX
  8
DEFAULT
  5
4E9
 10
9.564513
 20
5.020317
 30
0.0
  0
VERTEX
  8
DEFAULT
  5
4EA
 10
9.548086
 20
5.023272
 30
0.0
  0
VERTEX
  8
DEFAULT
  5
4EB
 10
9.528905
 20
5.024257
 30
0.0
  0
SEQEND
  8
DEFAULT
  5
4EC
  0
POLYLINE
  8
DEFAULT
  5
4ED
 66
     1
 10
0.0
 20
0.0
 30
0.0
210
0.0
220
0.0
230
1.0
  0
VERTEX
  8
DEFAULT
  5
4EE
 10
9.492605
 20
4.683045
 30
0.0
  0
VERTEX
  8
DEFAULT
  5
4EF
 10
9.487805
 20
4.646632
 30
0.0
  0
VERTEX
  8
DEFAULT
  5
4F0
 10
9.472822
 20
4.651833
 30
0.0
  0
VERTEX
  8
DEFAULT
  5
4F1
 10
9.459616
 20
4.658861
 30
0.0
  0
VERTEX
  8
DEFAULT
  5
4F2
 10
9.453679
 20
4.66306
 30
0.0
  0
VERTEX
  8
DEFAULT
  5
4F3
 10
9.448186
 20
4.667716
 30
0.0
  0
VERTEX
  8
DEFAULT
  5
4F4
 10
9.443138
 20
4.672829
 30
0.0
  0
VERTEX
  8
DEFAULT
  5
4F5
 10
9.438534
 20
4.678398
 30
0.0
  0
VERTEX
  8
DEFAULT
  5
4F6
 10
9.434425
 20
4.684397
 30
0.0
  0
VERTEX
  8
DEFAULT
  5
4F7
 10
9.430865
 20
4.690797
 30
0.0
  0
VERTEX
  8
DEFAULT
  5
4F8
 10
9.425388
 20
4.704805
 30
0.0
  0
VERTEX
  8
DEFAULT
  5
4F9
 10
9.422101
 20
4.720421
 30
0.0
  0
VERTEX
  8
DEFAULT
  5
4FA
 10
9.421005
 20
4.737645
 30
0.0
  0
VERTEX
  8
DEFAULT
  5
4FB
 10
9.422754
 20
4.759173
 30
0.0
  0
VERTEX
  8
DEFAULT
  5
4FC
 10
9.424939
 20
4.769055
 30
0.0
  0
VERTEX
  8
DEFAULT
  5
4FD
 10
9.427999
 20
4.77835
 30
0.0
  0
VERTEX
  8
DEFAULT
  5
4FE
 10
9.431933
 20
4.787058
 30
0.0
  0
VERTEX
  8
DEFAULT
  5
4FF
 10
9.436741
 20
4.795177
 30
0.0
  0
VERTEX
  8
DEFAULT
  5
500
 10
9.442424
 20
4.80271
 30
0.0
  0
VERTEX
  8
DEFAULT
  5
501
 10
9.44898
 20
4.809654
 30
0.0
  0
VERTEX
  8
DEFAULT
  5
502
 10
9.456326
 20
4.815889
 30
0.0
  0
VERTEX
  8
DEFAULT
  5
503
 10
9.464375
 20
4.821293
 30
0.0
  0
VERTEX
  8
DEFAULT
  5
504
 10
9.473128
 20
4.825865
 30
0.0
  0
VERTEX
  8
DEFAULT
  5
505
 10
9.482585
 20
4.829607
 30
0.0
  0
VERTEX
  8
DEFAULT
  5
506
 10
9.492746
 20
4.832516
 30
0.0
  0
VERTEX
  8
DEFAULT
  5
507
 10
9.50361
 20
4.834595
 30
0.0
  0
VERTEX
  8
DEFAULT
  5
508
 10
9.527449
 20
4.836257
 30
0.0
  0
VERTEX
  8
DEFAULT
  5
509
 10
9.552112
 20
4.834576
 30
0.0
  0
VERTEX
  8
DEFAULT
  5
50A
 10
9.563347
 20
4.832475
 30
0.0
  0
VERTEX
  8
DEFAULT
  5
50B
 10
9.57385
 20
4.829534
 30
0.0
  0
VERTEX
  8
DEFAULT
  5
50C
 10
9.583622
 20
4.825752
 30
0.0
  0
VERTEX
  8
DEFAULT
  5
50D
 10
9.592663
 20
4.82113
 30
0.0
  0
VERTEX
  8
DEFAULT
  5
50E
 10
9.600974
 20
4.815667
 30
0.0
  0
VERTEX
  8
DEFAULT
  5
50F
 10
9.608552
 20
4.809364
 30
0.0
  0
VERTEX
  8
DEFAULT
  5
510
 10
9.615315
 20
4.80239
 30
0.0
  0
VERTEX
  8
DEFAULT
  5
511
 10
9.621176
 20
4.794917
 30
0.0
  0
VERTEX
  8
DEFAULT
  5
512
 10
9.626135
 20
4.786945
 30
0.0
  0
VERTEX
  8
DEFAULT
  5
513
 10
9.630192
 20
4.778473
 30
0.0
  0
VERTEX
  8
DEFAULT
  5
514
 10
9.633348
 20
4.769501
 30
0.0
  0
VERTEX
  8
DEFAULT
  5
515
 10
9.635602
 20
4.76003
 30
0.0
  0
VERTEX
  8
DEFAULT
  5
516
 10
9.636955
 20
4.750059
 30
0.0
  0
VERTEX
  8
DEFAULT
  5
517
 10
9.637405
 20
4.739589
 30
0.0
  0
VERTEX
  8
DEFAULT
  5
518
 10
9.636964
 20
4.729448
 30
0.0
  0
VERTEX
  8
DEFAULT
  5
519
 10
9.635638
 20
4.719782
 30
0.0
  0
VERTEX
  8
DEFAULT
  5
51A
 10
9.633429
 20
4.710592
 30
0.0
  0
VERTEX
  8
DEFAULT
  5
51B
 10
9.630337
 20
4.701877
 30
0.0
  0
VERTEX
  8
DEFAULT
  5
51C
 10
9.626361
 20
4.693637
 30
0.0
  0
VERTEX
  8
DEFAULT
  5
51D
 10
9.621501
 20
4.685872
 30
0.0
  0
VERTEX
  8
DEFAULT
  5
51E
 10
9.615757
 20
4.678582
 30
0.0
  0
VERTEX
  8
DEFAULT
  5
51F
 10
9.60913
 20
4.671767
 30
0.0
  0
VERTEX
  8
DEFAULT
  5
520
 10
9.601702
 20
4.6656
 30
0.0
  0
VERTEX
  8
DEFAULT
  5
521
 10
9.593555
 20
4.660256
 30
0.0
  0
VERTEX
  8
DEFAULT
  5
522
 10
9.584688
 20
4.655734
 30
0.0
  0
VERTEX
  8
DEFAULT
  5
523
 10
9.575102
 20
4.652035
 30
0.0
  0
VERTEX
  8
DEFAULT
  5
524
 10
9.564797
 20
4.649157
 30
0.0
  0
VERTEX
  8
DEFAULT
  5
525
 10
9.553773
 20
4.647102
 30
0.0
  0
VERTEX
  8
DEFAULT
  5
526
 10
9.529568
 20
4.645457
 30
0.0
  0
VERTEX
  8
DEFAULT
  5
527
 10
9.520205
 20
4.645651
 30
0.0
  0
VERTEX
  8
DEFAULT
  5
528
 10
9.520205
 20
4.800257
 30
0.0
  0
VERTEX
  8
DEFAULT
  5
529
 10
9.504142
 20
4.798319
 30
0.0
  0
VERTEX
  8
DEFAULT
  5
52A
 10
9.490077
 20
4.794456
 30
0.0
  0
VERTEX
  8
DEFAULT
  5
52B
 10
9.483794
 20
4.791802
 30
0.0
  0
VERTEX
  8
DEFAULT
  5
52C
 10
9.478011
 20
4.788666
 30
0.0
  0
VERTEX
  8
DEFAULT
  5
52D
 10
9.472727
 20
4.785049
 30
0.0
  0
VERTEX
  8
DEFAULT
  5
52E
 10
9.467943
 20
4.780951
 30
0.0
  0
VERTEX
  8
DEFAULT
  5
52F
 10
9.463692
 20
4.776478
 30
0.0
  0
VERTEX
  8
DEFAULT
  5
530
 10
9.460008
 20
4.771736
 30
0.0
  0
VERTEX
  8
DEFAULT
  5
531
 10
9.45689
 20
4.766726
 30
0.0
  0
VERTEX
  8
DEFAULT
  5
532
 10
9.45434
 20
4.761448
 30
0.0
  0
VERTEX
  8
DEFAULT
  5
533
 10
9.452356
 20
4.755901
 30
0.0
  0
VERTEX
  8
DEFAULT
  5
534
 10
9.450939
 20
4.750086
 30
0.0
  0
VERTEX
  8
DEFAULT
  5
535
 10
9.450089
 20
4.744003
 30
0.0
  0
VERTEX
  8
DEFAULT
  5
536
 10
9.449805
 20
4.737651
 30
0.0
  0
VERTEX
  8
DEFAULT
  5
537
 10
9.450444
 20
4.728351
 30
0.0
  0
VERTEX
  8
DEFAULT
  5
538
 10
9.452358
 20
4.719758
 30
0.0
  0
VERTEX
  8
DEFAULT
  5
539
 10
9.455548
 20
4.711872
 30
0.0
  0
VERTEX
  8
DEFAULT
  5
53A
 10
9.460015
 20
4.704692
 30
0.0
  0
VERTEX
  8
DEFAULT
  5
53B
 10
9.462757
 20
4.701367
 30
0.0
  0
VERTEX
  8
DEFAULT
  5
53C
 10
9.46588
 20
4.698219
 30
0.0
  0
VERTEX
  8
DEFAULT
  5
53D
 10
9.473267
 20
4.692453
 30
0.0
  0
VERTEX
  8
DEFAULT
  5
53E
 10
9.482176
 20
4.687395
 30
0.0
  0
VERTEX
  8
DEFAULT
  5
53F
 10
9.492605
 20
4.683045
 30
0.0
  0
SEQEND
  8
DEFAULT
  5
540
  0
POLYLINE
  8
DEFAULT
  5
541
 66
     1
 10
0.0
 20
0.0
 30
0.0
210
0.0
220
0.0
230
1.0
  0
VERTEX
  8
DEFAULT
  5
542
 10
9.549005
 20
4.798257
 30
0.0
  0
VERTEX
  8
DEFAULT
  5
543
 10
9.549005
 20
4.682657
 30
0.0
  0
VERTEX
  8
DEFAULT
  5
544
 10
9.56128
 20
4.684362
 30
0.0
  0
VERTEX
  8
DEFAULT
  5
545
 10
9.571918
 20
4.68714
 30
0.0
  0
VERTEX
  8
DEFAULT
  5
546
 10
9.580918
 20
4.69099
 30
0.0
  0
VERTEX
  8
DEFAULT
  5
547
 10
9.584804
 20
4.693318
 30
0.0
  0
VERTEX
  8
DEFAULT
  5
548
 10
9.58828
 20
4.695914
 30
0.0
  0
VERTEX
  8
DEFAULT
  5
549
 10
9.593044
 20
4.70026
 30
0.0
  0
VERTEX
  8
DEFAULT
  5
54A
 10
9.597173
 20
4.704916
 30
0.0
  0
VERTEX
  8
DEFAULT
  5
54B
 10
9.600666
 20
4.709884
 30
0.0
  0
VERTEX
  8
DEFAULT
  5
54C
 10
9.603524
 20
4.715162
 30
0.0
  0
VERTEX
  8
DEFAULT
  5
54D
 10
9.605747
 20
4.720751
 30
0.0
  0
VERTEX
  8
DEFAULT
  5
54E
 10
9.607335
 20
4.726651
 30
0.0
  0
VERTEX
  8
DEFAULT
  5
54F
 10
9.608288
 20
4.732861
 30
0.0
  0
VERTEX
  8
DEFAULT
  5
550
 10
9.608605
 20
4.739382
 30
0.0
  0
VERTEX
  8
DEFAULT
  5
551
 10
9.608352
 20
4.745306
 30
0.0
  0
VERTEX
  8
DEFAULT
  5
552
 10
9.607592
 20
4.750988
 30
0.0
  0
VERTEX
  8
DEFAULT
  5
553
 10
9.606325
 20
4.75643
 30
0.0
  0
VERTEX
  8
DEFAULT
  5
554
 10
9.604551
 20
4.761631
 30
0.0
  0
VERTEX
  8
DEFAULT
  5
555
 10
9.60227
 20
4.766592
 30
0.0
  0
VERTEX
  8
DEFAULT
  5
556
 10
9.599482
 20
4.771312
 30
0.0
  0
VERTEX
  8
DEFAULT
  5
557
 10
9.596188
 20
4.775791
 30
0.0
  0
VERTEX
  8
DEFAULT
  5
558
 10
9.592387
 20
4.780029
 30
0.0
  0
VERTEX
  8
DEFAULT
  5
559
 10
9.588161
 20
4.783917
 30
0.0
  0
VERTEX
  8
DEFAULT
  5
55A
 10
9.583593
 20
4.787345
 30
0.0
  0
VERTEX
  8
DEFAULT
  5
55B
 10
9.578684
 20
4.790314
 30
0.0
  0
VERTEX
  8
DEFAULT
  5
55C
 10
9.573432
 20
4.792822
 30
0.0
  0
VERTEX
  8
DEFAULT
  5
55D
 10
9.567838
 20
4.794871
 30
0.0
  0
VERTEX
  8
DEFAULT
  5
55E
 10
9.561903
 20
4.796459
 30
0.0
  0
VERTEX
  8
DEFAULT
  5
55F
 10
9.549005
 20
4.798257
 30
0.0
  0
SEQEND
  8
DEFAULT
  5
560
  0
POLYLINE
  8
DEFAULT
  5
561
 66
     1
 10
0.0
 20
0.0
 30
0.0
210
0.0
220
0.0
230
1.0
  0
VERTEX
  8
DEFAULT
  5
562
 10
9.425405
 20
4.603057
 30
0.0
  0
VERTEX
  8
DEFAULT
  5
563
 10
9.711805
 20
4.603057
 30
0.0
  0
VERTEX
  8
DEFAULT
  5
564
 10
9.711805
 20
4.567857
 30
0.0
  0
VERTEX
  8
DEFAULT
  5
565
 10
9.425405
 20
4.567857
 30
0.0
  0
VERTEX
  8
DEFAULT
  5
566
 10
9.425405
 20
4.603057
 30
0.0
  0
SEQEND
  8
DEFAULT
  5
567
  0
POLYLINE
  8
DEFAULT
  5
568
 66
     1
 10
0.0
 20
0.0
 30
0.0
210
0.0
220
0.0
230
1.0
  0
VERTEX
  8
DEFAULT
  5
569
 10
9.451405
 20
4.377857
 30
0.0
  0
VERTEX
  8
DEFAULT
  5
56A
 10
9.427871
 20
4.415582
 30
0.0
  0
VERTEX
  8
DEFAULT
  5
56B
 10
9.421005
 20
4.454426
 30
0.0
  0
VERTEX
  8
DEFAULT
  5
56C
 10
9.422047
 20
4.470557
 30
0.0
  0
VERTEX
  8
DEFAULT
  5
56D
 10
9.42517
 20
4.484707
 30
0.0
  0
VERTEX
  8
DEFAULT
  5
56E
 10
9.427513
 20
4.491039
 30
0.0
  0
VERTEX
  8
DEFAULT
  5
56F
 10
9.430376
 20
4.496876
 30
0.0
  0
VERTEX
  8
DEFAULT
  5
570
 10
9.43376
 20
4.502217
 30
0.0
  0
VERTEX
  8
DEFAULT
  5
571
 10
9.437665
 20
4.507064
 30
0.0
  0
VERTEX
  8
DEFAULT
  5
572
 10
9.441974
 20
4.511375
 30
0.0
  0
VERTEX
  8
DEFAULT
  5
573
 10
9.446573
 20
4.515111
 30
0.0
  0
VERTEX
  8
DEFAULT
  5
574
 10
9.451461
 20
4.518272
 30
0.0
  0
VERTEX
  8
DEFAULT
  5
575
 10
9.456638
 20
4.520859
 30
0.0
  0
VERTEX
  8
DEFAULT
  5
576
 10
9.462104
 20
4.522871
 30
0.0
  0
VERTEX
  8
DEFAULT
  5
577
 10
9.467859
 20
4.524308
 30
0.0
  0
VERTEX
  8
DEFAULT
  5
578
 10
9.473903
 20
4.52517
 30
0.0
  0
VERTEX
  8
DEFAULT
  5
579
 10
9.480237
 20
4.525457
 30
0.0
  0
VERTEX
  8
DEFAULT
  5
57A
 10
9.508002
 20
4.51851
 30
0.0
  0
VERTEX
  8
DEFAULT
  5
57B
 10
9.528168
 20
4.500314
 30
0.0
  0
VERTEX
  8
DEFAULT
  5
57C
 10
9.539662
 20
4.47497
 30
0.0
  0
VERTEX
  8
DEFAULT
  5
57D
 10
9.544924
 20
4.443664
 30
0.0
  0
VERTEX
  8
DEFAULT
  5
57E
 10
9.557005
 20
4.380851
 30
0.0
  0
VERTEX
  8
DEFAULT
  5
57F
 10
9.566155
 20
4.380657
 30
0.0
  0
VERTEX
  8
DEFAULT
  5
580
 10
9.576071
 20
4.381282
 30
0.0
  0
VERTEX
  8
DEFAULT
  5
581
 10
9.580436
 20
4.382062
 30
0.0
  0
VERTEX
  8
DEFAULT
  5
582
 10
9.584405
 20
4.383154
 30
0.0
  0
VERTEX
  8
DEFAULT
  5
583
 10
9.58798
 20
4.384559
 30
0.0
  0
VERTEX
  8
DEFAULT
  5
584
 10
9.591159
 20
4.386275
 30
0.0
  0
VERTEX
  8
DEFAULT
  5
585
 10
9.593942
 20
4.388304
 30
0.0
  0
VERTEX
  8
DEFAULT
  5
586
 10
9.59633
 20
4.390645
 30
0.0
  0
VERTEX
  8
DEFAULT
  5
587
 10
9.599114
 20
4.394229
 30
0.0
  0
VERTEX
  8
DEFAULT
  5
588
 10
9.601526
 20
4.398224
 30
0.0
  0
VERTEX
  8
DEFAULT
  5
589
 10
9.603567
 20
4.402629
 30
0.0
  0
VERTEX
  8
DEFAULT
  5
58A
 10
9.605237
 20
4.407443
 30
0.0
  0
VERTEX
  8
DEFAULT
  5
58B
 10
9.607463
 20
4.418302
 30
0.0
  0
VERTEX
  8
DEFAULT
  5
58C
 10
9.608205
 20
4.430801
 30
0.0
  0
VERTEX
  8
DEFAULT
  5
58D
 10
9.60766
 20
4.442424
 30
0.0
  0
VERTEX
  8
DEFAULT
  5
58E
 10
9.606024
 20
4.45242
 30
0.0
  0
VERTEX
  8
DEFAULT
  5
58F
 10
9.604797
 20
4.456807
 30
0.0
  0
VERTEX
  8
DEFAULT
  5
590
 10
9.603298
 20
4.460787
 30
0.0
  0
VERTEX
  8
DEFAULT
  5
591
 10
9.601525
 20
4.46436
 30
0.0
  0
VERTEX
  8
DEFAULT
  5
592
 10
9.59948
 20
4.467526
 30
0.0
  0
VERTEX
  8
DEFAULT
  5
593
 10
9.597089
 20
4.470392
 30
0.0
  0
VERTEX
  8
DEFAULT
  5
594
 10
9.594279
 20
4.473065
 30
0.0
  0
VERTEX
  8
DEFAULT
  5
595
 10
9.591049
 20
4.475546
 30
0.0
  0
VERTEX
  8
DEFAULT
  5
596
 10
9.587399
 20
4.477834
 30
0.0
  0
VERTEX
  8
DEFAULT
  5
597
 10
9.578841
 20
4.481831
 30
0.0
  0
VERTEX
  8
DEFAULT
  5
598
 10
9.568605
 20
4.485057
 30
0.0
  0
VERTEX
  8
DEFAULT
  5
599
 10
9.573405
 20
4.519457
 30
0.0
  0
VERTEX
  8
DEFAULT
  5
59A
 10
9.609124
 20
4.503979
 30
0.0
  0
VERTEX
  8
DEFAULT
  5
59B
 10
9.615533
 20
4.49799
 30
0.0
  0
VERTEX
  8
DEFAULT
  5
59C
 10
9.621159
 20
4.4908
 30
0.0
  0
VERTEX
  8
DEFAULT
  5
59D
 10
9.626003
 20
4.48241
 30
0.0
  0
VERTEX
  8
DEFAULT
  5
59E
 10
9.630065
 20
4.47282
 30
0.0
  0
VERTEX
  8
DEFAULT
  5
59F
 10
9.637405
 20
4.425595
 30
0.0
  0
VERTEX
  8
DEFAULT
  5
5A0
 10
9.631143
 20
4.382289
 30
0.0
  0
VERTEX
  8
DEFAULT
  5
5A1
 10
9.615384
 20
4.357795
 30
0.0
  0
VERTEX
  8
DEFAULT
  5
5A2
 10
9.591405
 20
4.34682
 30
0.0
  0
VERTEX
  8
DEFAULT
  5
5A3
 10
9.559055
 20
4.345057
 30
0.0
  0
VERTEX
  8
DEFAULT
  5
5A4
 10
9.512374
 20
4.345057
 30
0.0
  0
VERTEX
  8
DEFAULT
  5
5A5
 10
9.450477
 20
4.342879
 30
0.0
  0
VERTEX
  8
DEFAULT
  5
5A6
 10
9.425405
 20
4.334257
 30
0.0
  0
VERTEX
  8
DEFAULT
  5
5A7
 10
9.425405
 20
4.371057
 30
0.0
  0
VERTEX
  8
DEFAULT
  5
5A8
 10
9.451405
 20
4.377857
 30
0.0
  0
SEQEND
  8
DEFAULT
  5
5A9
  0
POLYLINE
  8
DEFAULT
  5
5AA
 66
     1
 10
0.0
 20
0.0
 30
0.0
210
0.0
220
0.0
230
1.0
  0
VERTEX
  8
DEFAULT
  5
5AB
 10
9.529405
 20
4.380657
 30
0.0
  0
VERTEX
  8
DEFAULT
  5
5AC
 10
9.516199
 20
4.438276
 30
0.0
  0
VERTEX
  8
DEFAULT
  5
5AD
 10
9.509205
 20
4.469042
 30
0.0
  0
VERTEX
  8
DEFAULT
  5
5AE
 10
9.497843
 20
4.482957
 30
0.0
  0
VERTEX
  8
DEFAULT
  5
5AF
 10
9.481237
 20
4.487857
 30
0.0
  0
VERTEX
  8
DEFAULT
  5
5B0
 10
9.477813
 20
4.487691
 30
0.0
  0
VERTEX
  8
DEFAULT
  5
5B1
 10
9.474535
 20
4.487191
 30
0.0
  0
VERTEX
  8
DEFAULT
  5
5B2
 10
9.471402
 20
4.486358
 30
0.0
  0
VERTEX
  8
DEFAULT
  5
5B3
 10
9.468416
 20
4.485192
 30
0.0
  0
VERTEX
  8
DEFAULT
  5
5B4
 10
9.465575
 20
4.483692
 30
0.0
  0
VERTEX
  8
DEFAULT
  5
5B5
 10
9.46288
 20
4.48186
 30
0.0
  0
VERTEX
  8
DEFAULT
  5
5B6
 10
9.460331
 20
4.479694
 30
0.0
  0
VERTEX
  8
DEFAULT
  5
5B7
 10
9.457927
 20
4.477195
 30
0.0
  0
VERTEX
  8
DEFAULT
  5
5B8
 10
9.455743
 20
4.474375
 30
0.0
  0
VERTEX
  8
DEFAULT
  5
5B9
 10
9.453849
 20
4.471246
 30
0.0
  0
VERTEX
  8
DEFAULT
  5
5BA
 10
9.452247
 20
4.467809
 30
0.0
  0
VERTEX
  8
DEFAULT
  5
5BB
 10
9.450936
 20
4.464064
 30
0.0
  0
VERTEX
  8
DEFAULT
  5
5BC
 10
9.449188
 20
4.455646
 30
0.0
  0
VERTEX
  8
DEFAULT
  5
5BD
 10
9.448605
 20
4.445995
 30
0.0
  0
VERTEX
  8
DEFAULT
  5
5BE
 10
9.45744
 20
4.409804
 30
0.0
  0
VERTEX
  8
DEFAULT
  5
5BF
 10
9.462264
 20
4.402407
 30
0.0
  0
VERTEX
  8
DEFAULT
  5
5C0
 10
9.467902
 20
4.396061
 30
0.0
  0
VERTEX
  8
DEFAULT
  5
5C1
 10
9.474353
 20
4.390768
 30
0.0
  0
VERTEX
  8
DEFAULT
  5
5C2
 10
9.481618
 20
4.386526
 30
0.0
  0
VERTEX
  8
DEFAULT
  5
5C3
 10
9.516587
 20
4.380851
 30
0.0
  0
VERTEX
  8
DEFAULT
  5
5C4
 10
9.529405
 20
4.380657
 30
0.0
  0
SEQEND
  8
DEFAULT
  5
5C5
  0
POLYLINE
  8
DEFAULT
  5
5C6
 66
     1
 10
0.0
 20
0.0
 30
0.0
210
0.0
220
0.0
230
1.0
  0
VERTEX
  8
DEFAULT
  5
5C7
 10
9.425405
 20
4.176257
 30
0.0
  0
VERTEX
  8
DEFAULT
  5
5C8
 10
9.711805
 20
4.176257
 30
0.0
  0
VERTEX
  8
DEFAULT
  5
5C9
 10
9.711805
 20
4.119426
 30
0.0
  0
VERTEX
  8
DEFAULT
  5
5CA
 10
9.509068
 20
4.051714
 30
0.0
  0
VERTEX
  8
DEFAULT
  5
5CB
 10
9.466687
 20
4.038057
 30
0.0
  0
VERTEX
  8
DEFAULT
  5
5CC
 10
9.512587
 20
4.022732
 30
0.0
  0
VERTEX
  8
DEFAULT
  5
5CD
 10
9.711805
 20
3.95377
 30
0.0
  0
VERTEX
  8
DEFAULT
  5
5CE
 10
9.711805
 20
3.903057
 30
0.0
  0
VERTEX
  8
DEFAULT
  5
5CF
 10
9.425405
 20
3.903057
 30
0.0
  0
VERTEX
  8
DEFAULT
  5
5D0
 10
9.425405
 20
3.939457
 30
0.0
  0
VERTEX
  8
DEFAULT
  5
5D1
 10
9.665005
 20
3.939457
 30
0.0
  0
VERTEX
  8
DEFAULT
  5
5D2
 10
9.425405
 20
4.023064
 30
0.0
  0
VERTEX
  8
DEFAULT
  5
5D3
 10
9.425405
 20
4.057201
 30
0.0
  0
VERTEX
  8
DEFAULT
  5
5D4
 10
9.669405
 20
4.139857
 30
0.0
  0
VERTEX
  8
DEFAULT
  5
5D5
 10
9.425405
 20
4.139857
 30
0.0
  0
VERTEX
  8
DEFAULT
  5
5D6
 10
9.425405
 20
4.176257
 30
0.0
  0
SEQEND
  8
DEFAULT
  5
5D7
  0
POLYLINE
  8
DEFAULT
  5
5D8
 66
     1
 10
0.0
 20
0.0
 30
0.0
210
0.0
220
0.0
230
1.0
  0
VERTEX
  8
DEFAULT
  5
5D9
 10
9.425405
 20
3.842257
 30
0.0
  0
VERTEX
  8
DEFAULT
  5
5DA
 10
9.711805
 20
3.842257
 30
0.0
  0
VERTEX
  8
DEFAULT
  5
5DB
 10
9.711805
 20
3.743589
 30
0.0
  0
VERTEX
  8
DEFAULT
  5
5DC
 10
9.707705
 20
3.692595
 30
0.0
  0
VERTEX
  8
DEFAULT
  5
5DD
 10
9.704298
 20
3.680737
 30
0.0
  0
VERTEX
  8
DEFAULT
  5
5DE
 10
9.699743
 20
3.669784
 30
0.0
  0
VERTEX
  8
DEFAULT
  5
5DF
 10
9.694041
 20
3.659734
 30
0.0
  0
VERTEX
  8
DEFAULT
  5
5E0
 10
9.687193
 20
3.650589
 30
0.0
  0
VERTEX
  8
DEFAULT
  5
5E1
 10
9.676953
 20
3.639972
 30
0.0
  0
VERTEX
  8
DEFAULT
  5
5E2
 10
9.665383
 20
3.630783
 30
0.0
  0
VERTEX
  8
DEFAULT
  5
5E3
 10
9.652483
 20
3.623023
 30
0.0
  0
VERTEX
  8
DEFAULT
  5
5E4
 10
9.638252
 20
3.616692
 30
0.0
  0
VERTEX
  8
DEFAULT
  5
5E5
 10
9.622826
 20
3.611777
 30
0.0
  0
VERTEX
  8
DEFAULT
  5
5E6
 10
9.606336
 20
3.608266
 30
0.0
  0
VERTEX
  8
DEFAULT
  5
5E7
 10
9.570168
 20
3.605457
 30
0.0
  0
VERTEX
  8
DEFAULT
  5
5E8
 10
9.51234
 20
3.613076
 30
0.0
  0
VERTEX
  8
DEFAULT
  5
5E9
 10
9.47063
 20
3.632614
 30
0.0
  0
VERTEX
  8
DEFAULT
  5
5EA
 10
9.444649
 20
3.658698
 30
0.0
  0
VERTEX
  8
DEFAULT
  5
5EB
 10
9.43029
 20
3.692889
 30
0.0
  0
VERTEX
  8
DEFAULT
  5
5EC
 10
9.425405
 20
3.738901
 30
0.0
  0
VERTEX
  8
DEFAULT
  5
5ED
 10
9.425405
 20
3.842257
 30
0.0
  0
SEQEND
  8
DEFAULT
  5
5EE
  0
POLYLINE
  8
DEFAULT
  5
5EF
 66
     1
 10
0.0
 20
0.0
 30
0.0
210
0.0
220
0.0
230
1.0
  0
VERTEX
  8
DEFAULT
  5
5F0
 10
9.459005
 20
3.804257
 30
0.0
  0
VERTEX
  8
DEFAULT
  5
5F1
 10
9.459005
 20
3.743189
 30
0.0
  0
VERTEX
  8
DEFAULT
  5
5F2
 10
9.46429
 20
3.698798
 30
0.0
  0
VERTEX
  8
DEFAULT
  5
5F3
 10
9.479162
 20
3.673145
 30
0.0
  0
VERTEX
  8
DEFAULT
  5
5F4
 10
9.515468
 20
3.65217
 30
0.0
  0
VERTEX
  8
DEFAULT
  5
5F5
 10
9.570755
 20
3.644657
 30
0.0
  0
VERTEX
  8
DEFAULT
  5
5F6
 10
9.591962
 20
3.645578
 30
0.0
  0
VERTEX
  8
DEFAULT
  5
5F7
 10
9.610562
 20
3.64834
 30
0.0
  0
VERTEX
  8
DEFAULT
  5
5F8
 10
9.626555
 20
3.652944
 30
0.0
  0
VERTEX
  8
DEFAULT
  5
5F9
 10
9.633575
 20
3.655936
 30
0.0
  0
VERTEX
  8
DEFAULT
  5
5FA
 10
9.639943
 20
3.659389
 30
0.0
  0
VERTEX
  8
DEFAULT
  5
5FB
 10
9.651031
 20
3.66715
 30
0.0
  0
VERTEX
  8
DEFAULT
  5
5FC
 10
9.660126
 20
3.675704
 30
0.0
  0
VERTEX
  8
DEFAULT
  5
5FD
 10
9.663926
 20
3.680278
 30
0.0
  0
VERTEX
  8
DEFAULT
  5
5FE
 10
9.667228
 20
3.68505
 30
0.0
  0
VERTEX
  8
DEFAULT
  5
5FF
 10
9.670031
 20
3.69002
 30
0.0
  0
VERTEX
  8
DEFAULT
  5
600
 10
9.672337
 20
3.695189
 30
0.0
  0
VERTEX
  8
DEFAULT
  5
601
 10
9.678205
 20
3.744164
 30
0.0
  0
VERTEX
  8
DEFAULT
  5
602
 10
9.678205
 20
3.804257
 30
0.0
  0
VERTEX
  8
DEFAULT
  5
603
 10
9.459005
 20
3.804257
 30
0.0
  0
SEQEND
  8
DEFAULT
  5
604
  0
POLYLINE
  8
DEFAULT
  5
605
 66
     1
 10
0.0
 20
0.0
 30
0.0
210
0.0
220
0.0
230
1.0
  0
VERTEX
  8
DEFAULT
  5
606
 10
9.425405
 20
3.582501
 30
0.0
  0
VERTEX
  8
DEFAULT
  5
607
 10
9.57403
 20
3.471826
 30
0.0
  0
VERTEX
  8
DEFAULT
  5
608
 10
9.711805
 20
3.569301
 30
0.0
  0
VERTEX
  8
DEFAULT
  5
609
 10
9.711805
 20
3.524201
 30
0.0
  0
VERTEX
  8
DEFAULT
  5
60A
 10
9.638549
 20
3.471995
 30
0.0
  0
VERTEX
  8
DEFAULT
  5
60B
 10
9.603699
 20
3.449232
 30
0.0
  0
VERTEX
  8
DEFAULT
  5
60C
 10
9.635624
 20
3.426464
 30
0.0
  0
VERTEX
  8
DEFAULT
  5
60D
 10
9.711805
 20
3.369239
 30
0.0
  0
VERTEX
  8
DEFAULT
  5
60E
 10
9.711805
 20
3.327701
 30
0.0
  0
VERTEX
  8
DEFAULT
  5
60F
 10
9.575668
 20
3.427182
 30
0.0
  0
VERTEX
  8
DEFAULT
  5
610
 10
9.425405
 20
3.320101
 30
0.0
  0
VERTEX
  8
DEFAULT
  5
611
 10
9.425405
 20
3.366676
 30
0.0
  0
VERTEX
  8
DEFAULT
  5
612
 10
9.527549
 20
3.438951
 30
0.0
  0
VERTEX
  8
DEFAULT
  5
613
 10
9.544843
 20
3.450689
 30
0.0
  0
VERTEX
  8
DEFAULT
  5
614
 10
9.524705
 20
3.46442
 30
0.0
  0
VERTEX
  8
DEFAULT
  5
615
 10
9.425405
 20
3.536989
 30
0.0
  0
VERTEX
  8
DEFAULT
  5
616
 10
9.425405
 20
3.582501
 30
0.0
  0
SEQEND
  8
DEFAULT
  5
617
  0
POLYLINE
  8
DEFAULT
  5
618
 66
     1
 10
0.0
 20
0.0
 30
0.0
210
0.0
220
0.0
230
1.0
  0
VERTEX
  8
DEFAULT
  5
619
 10
9.511405
 20
3.305057
 30
0.0
  0
VERTEX
  8
DEFAULT
  5
61A
 10
9.546605
 20
3.305057
 30
0.0
  0
VERTEX
  8
DEFAULT
  5
61B
 10
9.546605
 20
3.196257
 30
0.0
  0
VERTEX
  8
DEFAULT
  5
61C
 10
9.511405
 20
3.196257
 30
0.0
  0
VERTEX
  8
DEFAULT
  5
61D
 10
9.511405
 20
3.305057
 30
0.0
  0
SEQEND
  8
DEFAULT
  5
61E
  0
POLYLINE
  8
DEFAULT
  5
61F
 66
     1
 10
0.0
 20
0.0
 30
0.0
210
0.0
220
0.0
230
1.0
  0
VERTEX
  8
DEFAULT
  5
620
 10
9.459005
 20
2.983057
 30
0.0
  0
VERTEX
  8
DEFAULT
  5
621
 10
9.425405
 20
2.983057
 30
0.0
  0
VERTEX
  8
DEFAULT
  5
622
 10
9.425405
 20
3.172657
 30
0.0
  0
VERTEX
  8
DEFAULT
  5
623
 10
9.449849
 20
3.168514
 30
0.0
  0
VERTEX
  8
DEFAULT
  5
624
 10
9.487927
 20
3.145139
 30
0.0
  0
VERTEX
  8
DEFAULT
  5
625
 10
9.531124
 20
3.099101
 30
0.0
  0
VERTEX
  8
DEFAULT
  5
626
 10
9.591812
 20
3.036032
 30
0.0
  0
VERTEX
  8
DEFAULT
  5
627
 10
9.602847
 20
3.028781
 30
0.0
  0
VERTEX
  8
DEFAULT
  5
628
 10
9.61359
 20
3.023601
 30
0.0
  0
VERTEX
  8
DEFAULT
  5
629
 10
9.624041
 20
3.020493
 30
0.0
  0
VERTEX
  8
DEFAULT
  5
62A
 10
9.629156
 20
3.019716
 30
0.0
  0
VERTEX
  8
DEFAULT
  5
62B
 10
9.634199
 20
3.019457
 30
0.0
  0
VERTEX
  8
DEFAULT
  5
62C
 10
9.639321
 20
3.019692
 30
0.0
  0
VERTEX
  8
DEFAULT
  5
62D
 10
9.644238
 20
3.020395
 30
0.0
  0
VERTEX
  8
DEFAULT
  5
62E
 10
9.64895
 20
3.021567
 30
0.0
  0
VERTEX
  8
DEFAULT
  5
62F
 10
9.653459
 20
3.023207
 30
0.0
  0
VERTEX
  8
DEFAULT
  5
630
 10
9.657763
 20
3.025317
 30
0.0
  0
VERTEX
  8
DEFAULT
  5
631
 10
9.661863
 20
3.027895
 30
0.0
  0
VERTEX
  8
DEFAULT
  5
632
 10
9.665758
 20
3.030942
 30
0.0
  0
VERTEX
  8
DEFAULT
  5
633
 10
9.669449
 20
3.034457
 30
0.0
  0
VERTEX
  8
DEFAULT
  5
634
 10
9.672814
 20
3.03835
 30
0.0
  0
VERTEX
  8
DEFAULT
  5
635
 10
9.67573
 20
3.042527
 30
0.0
  0
VERTEX
  8
DEFAULT
  5
636
 10
9.678198
 20
3.04699
 30
0.0
  0
VERTEX
  8
DEFAULT
  5
637
 10
9.680216
 20
3.051737
 30
0.0
  0
VERTEX
  8
DEFAULT
  5
638
 10
9.681787
 20
3.056769
 30
0.0
  0
VERTEX
  8
DEFAULT
  5
639
 10
9.682908
 20
3.062087
 30
0.0
  0
VERTEX
  8
DEFAULT
  5
63A
 10
9.683805
 20
3.073576
 30
0.0
  0
VERTEX
  8
DEFAULT
  5
63B
 10
9.682857
 20
3.085686
 30
0.0
  0
VERTEX
  8
DEFAULT
  5
63C
 10
9.681671
 20
3.091262
 30
0.0
  0
VERTEX
  8
DEFAULT
  5
63D
 10
9.680012
 20
3.096521
 30
0.0
  0
VERTEX
  8
DEFAULT
  5
63E
 10
9.677878
 20
3.10146
 30
0.0
  0
VERTEX
  8
DEFAULT
  5
63F
 10
9.67527
 20
3.106081
 30
0.0
  0
VERTEX
  8
DEFAULT
  5
640
 10
9.672187
 20
3.110383
 30
0.0
  0
VERTEX
  8
DEFAULT
  5
641
 10
9.66863
 20
3.114367
 30
0.0
  0
VERTEX
  8
DEFAULT
  5
642
 10
9.664654
 20
3.117955
 30
0.0
  0
VERTEX
  8
DEFAULT
  5
643
 10
9.660313
 20
3.121071
 30
0.0
  0
VERTEX
  8
DEFAULT
  5
644
 10
9.655607
 20
3.123715
 30
0.0
  0
VERTEX
  8
DEFAULT
  5
645
 10
9.650537
 20
3.125888
 30
0.0
  0
VERTEX
  8
DEFAULT
  5
646
 10
9.645101
 20
3.127588
 30
0.0
  0
VERTEX
  8
DEFAULT
  5
647
 10
9.639301
 20
3.128816
 30
0.0
  0
VERTEX
  8
DEFAULT
  5
648
 10
9.626605
 20
3.129857
 30
0.0
  0
VERTEX
  8
DEFAULT
  5
649
 10
9.630205
 20
3.165857
 30
0.0
  0
VERTEX
  8
DEFAULT
  5
64A
 10
9.649216
 20
3.162718
 30
0.0
  0
VERTEX
  8
DEFAULT
  5
64B
 10
9.657819
 20
3.160186
 30
0.0
  0
VERTEX
  8
DEFAULT
  5
64C
 10
9.665821
 20
3.157012
 30
0.0
  0
VERTEX
  8
DEFAULT
  5
64D
 10
9.673222
 20
3.153197
 30
0.0
  0
VERTEX
  8
DEFAULT
  5
64E
 10
9.680022
 20
3.14874
 30
0.0
  0
VERTEX
  8
DEFAULT
  5
64F
 10
9.686221
 20
3.143641
 30
0.0
  0
VERTEX
  8
DEFAULT
  5
650
 10
9.691818
 20
3.137901
 30
0.0
  0
VERTEX
  8
DEFAULT
  5
651
 10
9.696784
 20
3.131581
 30
0.0
  0
VERTEX
  8
DEFAULT
  5
652
 10
9.701088
 20
3.124741
 30
0.0
  0
VERTEX
  8
DEFAULT
  5
653
 10
9.704729
 20
3.117382
 30
0.0
  0
VERTEX
  8
DEFAULT
  5
654
 10
9.707709
 20
3.109504
 30
0.0
  0
VERTEX
  8
DEFAULT
  5
655
 10
9.711681
 20
3.092191
 30
0.0
  0
VERTEX
  8
DEFAULT
  5
656
 10
9.713005
 20
3.072801
 30
0.0
  0
VERTEX
  8
DEFAULT
  5
657
 10
9.711575
 20
3.053251
 30
0.0
  0
VERTEX
  8
DEFAULT
  5
658
 10
9.709788
 20
3.044283
 30
0.0
  0
VERTEX
  8
DEFAULT
  5
659
 10
9.707285
 20
3.035852
 30
0.0
  0
VERTEX
  8
DEFAULT
  5
65A
 10
9.704067
 20
3.027959
 30
0.0
  0
VERTEX
  8
DEFAULT
  5
65B
 10
9.700135
 20
3.020603
 30
0.0
  0
VERTEX
  8
DEFAULT
  5
65C
 10
9.695487
 20
3.013785
 30
0.0
  0
VERTEX
  8
DEFAULT
  5
65D
 10
9.690124
 20
3.007504
 30
0.0
  0
VERTEX
  8
DEFAULT
  5
65E
 10
9.684233
 20
3.001868
 30
0.0
  0
VERTEX
  8
DEFAULT
  5
65F
 10
9.677999
 20
2.996984
 30
0.0
  0
VERTEX
  8
DEFAULT
  5
660
 10
9.671423
 20
2.992851
 30
0.0
  0
VERTEX
  8
DEFAULT
  5
661
 10
9.664505
 20
2.989469
 30
0.0
  0
VERTEX
  8
DEFAULT
  5
662
 10
9.657245
 20
2.986839
 30
0.0
  0
VERTEX
  8
DEFAULT
  5
663
 10
9.649643
 20
2.98496
 30
0.0
  0
VERTEX
  8
DEFAULT
  5
664
 10
9.641698
 20
2.983833
 30
0.0
  0
VERTEX
  8
DEFAULT
  5
665
 10
9.633412
 20
2.983457
 30
0.0
  0
VERTEX
  8
DEFAULT
  5
666
 10
9.599577
 20
2.990501
 30
0.0
  0
VERTEX
  8
DEFAULT
  5
667
 10
9.564571
 20
3.013879
 30
0.0
  0
VERTEX
  8
DEFAULT
  5
668
 10
9.51413
 20
3.06807
 30
0.0
  0
VERTEX
  8
DEFAULT
  5
669
 10
9.478062
 20
3.108782
 30
0.0
  0
VERTEX
  8
DEFAULT
  5
66A
 10
9.459005
 20
3.123676
 30
0.0
  0
VERTEX
  8
DEFAULT
  5
66B
 10
9.459005
 20
2.983057
 30
0.0
  0
SEQEND
  8
DEFAULT
  5
66C
  0
POLYLINE
  8
DEFAULT
  5
66D
 66
     1
 10
0.0
 20
0.0
 30
0.0
210
0.0
220
0.0
230
1.0
  0
VERTEX
  8
DEFAULT
  5
66E
 10
9.566705
 20
2.945057
 30
0.0
  0
VERTEX
  8
DEFAULT
  5
66F
 10
9.612561
 20
2.942449
 30
0.0
  0
VERTEX
  8
DEFAULT
  5
670
 10
9.63179
 20
2.93919
 30
0.0
  0
VERTEX
  8
DEFAULT
  5
671
 10
9.648552
 20
2.934626
 30
0.0
  0
VERTEX
  8
DEFAULT
  5
672
 10
9.663184
 20
2.928777
 30
0.0
  0
VERTEX
  8
DEFAULT
  5
673
 10
9.676021
 20
2.92166
 30
0.0
  0
VERTEX
  8
DEFAULT
  5
674
 10
9.687063
 20
2.913275
 30
0.0
  0
VERTEX
  8
DEFAULT
  5
675
 10
9.696309
 20
2.903623
 30
0.0
  0
VERTEX
  8
DEFAULT
  5
676
 10
9.700222
 20
2.898314
 30
0.0
  0
VERTEX
  8
DEFAULT
  5
677
 10
9.703613
 20
2.892673
 30
0.0
  0
VERTEX
  8
DEFAULT
  5
678
 10
9.706483
 20
2.8867
 30
0.0
  0
VERTEX
  8
DEFAULT
  5
679
 10
9.708831
 20
2.880396
 30
0.0
  0
VERTEX
  8
DEFAULT
  5
67A
 10
9.711962
 20
2.86679
 30
0.0
  0
VERTEX
  8
DEFAULT
  5
67B
 10
9.713005
 20
2.851857
 30
0.0
  0
VERTEX
  8
DEFAULT
  5
67C
 10
9.712426
 20
2.840701
 30
0.0
  0
VERTEX
  8
DEFAULT
  5
67D
 10
9.710686
 20
2.830239
 30
0.0
  0
VERTEX
  8
DEFAULT
  5
67E
 10
9.707787
 20
2.820472
 30
0.0
  0
VERTEX
  8
DEFAULT
  5
67F
 10
9.703727
 20
2.811398
 30
0.0
  0
VERTEX
  8
DEFAULT
  5
680
 10
9.698576
 20
2.803062
 30
0.0
  0
VERTEX
  8
DEFAULT
  5
681
 10
9.692398
 20
2.795506
 30
0.0
  0
VERTEX
  8
DEFAULT
  5
682
 10
9.685196
 20
2.78873
 30
0.0
  0
VERTEX
  8
DEFAULT
  5
683
 10
9.676968
 20
2.782735
 30
0.0
  0
VERTEX
  8
DEFAULT
  5
684
 10
9.634387
 20
2.765092
 30
0.0
  0
VERTEX
  8
DEFAULT
  5
685
 10
9.566705
 20
2.758657
 30
0.0
  0
VERTEX
  8
DEFAULT
  5
686
 10
9.521146
 20
2.761241
 30
0.0
  0
VERTEX
  8
DEFAULT
  5
687
 10
9.501992
 20
2.76447
 30
0.0
  0
VERTEX
  8
DEFAULT
  5
688
 10
9.485255
 20
2.768992
 30
0.0
  0
VERTEX
  8
DEFAULT
  5
689
 10
9.470619
 20
2.774798
 30
0.0
  0
VERTEX
  8
DEFAULT
  5
68A
 10
9.457764
 20
2.781885
 30
0.0
  0
VERTEX
  8
DEFAULT
  5
68B
 10
9.446692
 20
2.79025
 30
0.0
  0
VERTEX
  8
DEFAULT
  5
68C
 10
9.437402
 20
2.799895
 30
0.0
  0
VERTEX
  8
DEFAULT
  5
68D
 10
9.433466
 20
2.805206
 30
0.0
  0
VERTEX
  8
DEFAULT
  5
68E
 10
9.430054
 20
2.810856
 30
0.0
  0
VERTEX
  8
DEFAULT
  5
68F
 10
9.427167
 20
2.816844
 30
0.0
  0
VERTEX
  8
DEFAULT
  5
690
 10
9.424805
 20
2.82317
 30
0.0
  0
VERTEX
  8
DEFAULT
  5
691
 10
9.421655
 20
2.836837
 30
0.0
  0
VERTEX
  8
DEFAULT
  5
692
 10
9.420605
 20
2.851857
 30
0.0
  0
VERTEX
  8
DEFAULT
  5
693
 10
9.421066
 20
2.861914
 30
0.0
  0
VERTEX
  8
DEFAULT
  5
694
 10
9.422448
 20
2.871417
 30
0.0
  0
VERTEX
  8
DEFAULT
  5
695
 10
9.424752
 20
2.880364
 30
0.0
  0
VERTEX
  8
DEFAULT
  5
696
 10
9.427977
 20
2.888757
 30
0.0
  0
VERTEX
  8
DEFAULT
  5
697
 10
9.432124
 20
2.896596
 30
0.0
  0
VERTEX
  8
DEFAULT
  5
698
 10
9.437192
 20
2.903879
 30
0.0
  0
VERTEX
  8
DEFAULT
  5
699
 10
9.443182
 20
2.910608
 30
0.0
  0
VERTEX
  8
DEFAULT
  5
69A
 10
9.450093
 20
2.916782
 30
0.0
  0
VERTEX
  8
DEFAULT
  5
69B
 10
9.459778
 20
2.923409
 30
0.0
  0
VERTEX
  8
DEFAULT
  5
69C
 10
9.47086
 20
2.929153
 30
0.0
  0
VERTEX
  8
DEFAULT
  5
69D
 10
9.48334
 20
2.934012
 30
0.0
  0
VERTEX
  8
DEFAULT
  5
69E
 10
9.497218
 20
2.937989
 30
0.0
  0
VERTEX
  8
DEFAULT
  5
69F
 10
9.529166
 20
2.94329
 30
0.0
  0
VERTEX
  8
DEFAULT
  5
6A0
 10
9.566705
 20
2.945057
 30
0.0
  0
SEQEND
  8
DEFAULT
  5
6A1
  0
POLYLINE
  8
DEFAULT
  5
6A2
 66
     1
 10
0.0
 20
0.0
 30
0.0
210
0.0
220
0.0
230
1.0
  0
VERTEX
  8
DEFAULT
  5
6A3
 10
9.566605
 20
2.909057
 30
0.0
  0
VERTEX
  8
DEFAULT
  5
6A4
 10
9.50776
 20
2.904933
 30
0.0
  0
VERTEX
  8
DEFAULT
  5
6A5
 10
9.487238
 20
2.899778
 30
0.0
  0
VERTEX
  8
DEFAULT
  5
6A6
 10
9.479202
 20
2.896427
 30
0.0
  0
VERTEX
  8
DEFAULT
  5
6A7
 10
9.472649
 20
2.89256
 30
0.0
  0
VERTEX
  8
DEFAULT
  5
6A8
 10
9.467201
 20
2.888316
 30
0.0
  0
VERTEX
  8
DEFAULT
  5
6A9
 10
9.46248
 20
2.88383
 30
0.0
  0
VERTEX
  8
DEFAULT
  5
6AA
 10
9.458485
 20
2.879104
 30
0.0
  0
VERTEX
  8
DEFAULT
  5
6AB
 10
9.455216
 20
2.874136
 30
0.0
  0
VERTEX
  8
DEFAULT
  5
6AC
 10
9.452674
 20
2.868928
 30
0.0
  0
VERTEX
  8
DEFAULT
  5
6AD
 10
9.450858
 20
2.863479
 30
0.0
  0
VERTEX
  8
DEFAULT
  5
6AE
 10
9.449769
 20
2.857788
 30
0.0
  0
VERTEX
  8
DEFAULT
  5
6AF
 10
9.449405
 20
2.851857
 30
0.0
  0
VERTEX
  8
DEFAULT
  5
6B0
 10
9.44977
 20
2.845926
 30
0.0
  0
VERTEX
  8
DEFAULT
  5
6B1
 10
9.450864
 20
2.840236
 30
0.0
  0
VERTEX
  8
DEFAULT
  5
6B2
 10
9.452688
 20
2.834787
 30
0.0
  0
VERTEX
  8
DEFAULT
  5
6B3
 10
9.455241
 20
2.829578
 30
0.0
  0
VERTEX
  8
DEFAULT
  5
6B4
 10
9.458523
 20
2.824611
 30
0.0
  0
VERTEX
  8
DEFAULT
  5
6B5
 10
9.462535
 20
2.819884
 30
0.0
  0
VERTEX
  8
DEFAULT
  5
6B6
 10
9.467276
 20
2.815399
 30
0.0
  0
VERTEX
  8
DEFAULT
  5
6B7
 10
9.472746
 20
2.811154
 30
0.0
  0
VERTEX
  8
DEFAULT
  5
6B8
 10
9.479318
 20
2.807288
 30
0.0
  0
VERTEX
  8
DEFAULT
  5
6B9
 10
9.487365
 20
2.803937
 30
0.0
  0
VERTEX
  8
DEFAULT
  5
6BA
 10
9.507881
 20
2.798782
 30
0.0
  0
VERTEX
  8
DEFAULT
  5
6BB
 10
9.566605
 20
2.794657
 30
0.0
  0
VERTEX
  8
DEFAULT
  5
6BC
 10
9.625451
 20
2.798769
 30
0.0
  0
VERTEX
  8
DEFAULT
  5
6BD
 10
9.645973
 20
2.803909
 30
0.0
  0
VERTEX
  8
DEFAULT
  5
6BE
 10
9.654009
 20
2.807249
 30
0.0
  0
VERTEX
  8
DEFAULT
  5
6BF
 10
9.660562
 20
2.811104
 30
0.0
  0
VERTEX
  8
DEFAULT
  5
6C0
 10
9.666009
 20
2.815345
 30
0.0
  0
VERTEX
  8
DEFAULT
  5
6C1
 10
9.670731
 20
2.819843
 30
0.0
  0
VERTEX
  8
DEFAULT
  5
6C2
 10
9.674726
 20
2.824599
 30
0.0
  0
VERTEX
  8
DEFAULT
  5
6C3
 10
9.677995
 20
2.829613
 30
0.0
  0
VERTEX
  8
DEFAULT
  5
6C4
 10
9.680537
 20
2.834884
 30
0.0
  0
VERTEX
  8
DEFAULT
  5
6C5
 10
9.682353
 20
2.840413
 30
0.0
  0
VERTEX
  8
DEFAULT
  5
6C6
 10
9.683442
 20
2.8462
 30
0.0
  0
VERTEX
  8
DEFAULT
  5
6C7
 10
9.683805
 20
2.852245
 30
0.0
  0
VERTEX
  8
DEFAULT
  5
6C8
 10
9.683485
 20
2.858147
 30
0.0
  0
VERTEX
  8
DEFAULT
  5
6C9
 10
9.682523
 20
2.863747
 30
0.0
  0
VERTEX
  8
DEFAULT
  5
6CA
 10
9.680921
 20
2.869044
 30
0.0
  0
VERTEX
  8
DEFAULT
  5
6CB
 10
9.678677
 20
2.87404
 30
0.0
  0
VERTEX
  8
DEFAULT
  5
6CC
 10
9.675793
 20
2.878734
 30
0.0
  0
VERTEX
  8
DEFAULT
  5
6CD
 10
9.672267
 20
2.883125
 30
0.0
  0
VERTEX
  8
DEFAULT
  5
6CE
 10
9.668101
 20
2.887214
 30
0.0
  0
VERTEX
  8
DEFAULT
  5
6CF
 10
9.663293
 20
2.891001
 30
0.0
  0
VERTEX
  8
DEFAULT
  5
6D0
 10
9.656056
 20
2.895233
 30
0.0
  0
VERTEX
  8
DEFAULT
  5
6D1
 10
9.647434
 20
2.898901
 30
0.0
  0
VERTEX
  8
DEFAULT
  5
6D2
 10
9.626034
 20
2.904543
 30
0.0
  0
VERTEX
  8
DEFAULT
  5
6D3
 10
9.599091
 20
2.907929
 30
0.0
  0
VERTEX
  8
DEFAULT
  5
6D4
 10
9.566605
 20
2.909057
 30
0.0
  0
SEQEND
  8
DEFAULT
  5
6D5
  0
POLYLINE
  8
DEFAULT
  5
6D6
 66
     1
 10
0.0
 20
0.0
 30
0.0
210
0.0
220
0.0
230
1.0
  0
VERTEX
  8
DEFAULT
  5
6D7
 10
9.425405
 20
2.597457
 30
0.0
  0
VERTEX
  8
DEFAULT
  5
6D8
 10
9.711805
 20
2.597457
 30
0.0
  0
VERTEX
  8
DEFAULT
  5
6D9
 10
9.711805
 20
2.489326
 30
0.0
  0
VERTEX
  8
DEFAULT
  5
6DA
 10
9.709074
 20
2.445726
 30
0.0
  0
VERTEX
  8
DEFAULT
  5
6DB
 10
9.695724
 20
2.410332
 30
0.0
  0
VERTEX
  8
DEFAULT
  5
6DC
 10
9.66814
 20
2.387357
 30
0.0
  0
VERTEX
  8
DEFAULT
  5
6DD
 10
9.629149
 20
2.378657
 30
0.0
  0
VERTEX
  8
DEFAULT
  5
6DE
 10
9.611622
 20
2.380111
 30
0.0
  0
VERTEX
  8
DEFAULT
  5
6DF
 10
9.603384
 20
2.381928
 30
0.0
  0
VERTEX
  8
DEFAULT
  5
6E0
 10
9.595496
 20
2.384472
 30
0.0
  0
VERTEX
  8
DEFAULT
  5
6E1
 10
9.587959
 20
2.387743
 30
0.0
  0
VERTEX
  8
DEFAULT
  5
6E2
 10
9.580772
 20
2.391741
 30
0.0
  0
VERTEX
  8
DEFAULT
  5
6E3
 10
9.573935
 20
2.396465
 30
0.0
  0
VERTEX
  8
DEFAULT
  5
6E4
 10
9.567449
 20
2.401917
 30
0.0
  0
VERTEX
  8
DEFAULT
  5
6E5
 10
9.561533
 20
2.408318
 30
0.0
  0
VERTEX
  8
DEFAULT
  5
6E6
 10
9.556405
 20
2.415892
 30
0.0
  0
VERTEX
  8
DEFAULT
  5
6E7
 10
9.552066
 20
2.424639
 30
0.0
  0
VERTEX
  8
DEFAULT
  5
6E8
 10
9.548516
 20
2.434558
 30
0.0
  0
VERTEX
  8
DEFAULT
  5
6E9
 10
9.543783
 20
2.457915
 30
0.0
  0
VERTEX
  8
DEFAULT
  5
6EA
 10
9.542205
 20
2.485964
 30
0.0
  0
VERTEX
  8
DEFAULT
  5
6EB
 10
9.542205
 20
2.559457
 30
0.0
  0
VERTEX
  8
DEFAULT
  5
6EC
 10
9.425405
 20
2.559457
 30
0.0
  0
VERTEX
  8
DEFAULT
  5
6ED
 10
9.425405
 20
2.597457
 30
0.0
  0
SEQEND
  8
DEFAULT
  5
6EE
  0
POLYLINE
  8
DEFAULT
  5
6EF
 66
     1
 10
0.0
 20
0.0
 30
0.0
210
0.0
220
0.0
230
1.0
  0
VERTEX
  8
DEFAULT
  5
6F0
 10
9.575805
 20
2.559457
 30
0.0
  0
VERTEX
  8
DEFAULT
  5
6F1
 10
9.575805
 20
2.485432
 30
0.0
  0
VERTEX
  8
DEFAULT
  5
6F2
 10
9.57666
 20
2.468404
 30
0.0
  0
VERTEX
  8
DEFAULT
  5
6F3
 10
9.579225
 20
2.454036
 30
0.0
  0
VERTEX
  8
DEFAULT
  5
6F4
 10
9.581149
 20
2.44785
 30
0.0
  0
VERTEX
  8
DEFAULT
  5
6F5
 10
9.583499
 20
2.44233
 30
0.0
  0
VERTEX
  8
DEFAULT
  5
6F6
 10
9.586278
 20
2.437475
 30
0.0
  0
VERTEX
  8
DEFAULT
  5
6F7
 10
9.589484
 20
2.433285
 30
0.0
  0
VERTEX
  8
DEFAULT
  5
6F8
 10
9.593077
 20
2.429669
 30
0.0
  0
VERTEX
  8
DEFAULT
  5
6F9
 10
9.597019
 20
2.426536
 30
0.0
  0
VERTEX
  8
DEFAULT
  5
6FA
 10
9.601309
 20
2.423884
 30
0.0
  0
VERTEX
  8
DEFAULT
  5
6FB
 10
9.605947
 20
2.421714
 30
0.0
  0
VERTEX
  8
DEFAULT
  5
6FC
 10
9.610933
 20
2.420027
 30
0.0
  0
VERTEX
  8
DEFAULT
  5
6FD
 10
9.616267
 20
2.418822
 30
0.0
  0
VERTEX
  8
DEFAULT
  5
6FE
 10
9.62798
 20
2.417857
 30
0.0
  0
VERTEX
  8
DEFAULT
  5
6FF
 10
9.636647
 20
2.418425
 30
0.0
  0
VERTEX
  8
DEFAULT
  5
700
 10
9.644666
 20
2.420128
 30
0.0
  0
VERTEX
  8
DEFAULT
  5
701
 10
9.652038
 20
2.422965
 30
0.0
  0
VERTEX
  8
DEFAULT
  5
702
 10
9.658762
 20
2.426939
 30
0.0
  0
VERTEX
  8
DEFAULT
  5
703
 10
9.664618
 20
2.431839
 30
0.0
  0
VERTEX
  8
DEFAULT
  5
704
 10
9.667139
 20
2.43456
 30
0.0
  0
VERTEX
  8
DEFAULT
  5
705
 10
9.669388
 20
2.43746
 30
0.0
  0
VERTEX
  8
DEFAULT
  5
706
 10
9.671366
 20
2.440541
 30
0.0
  0
VERTEX
  8
DEFAULT
  5
707
 10
9.673072
 20
2.443802
 30
0.0
  0
VERTEX
  8
DEFAULT
  5
708
 10
9.675668
 20
2.450864
 30
0.0
  0
VERTEX
  8
DEFAULT
  5
709
 10
9.678205
 20
2.486214
 30
0.0
  0
VERTEX
  8
DEFAULT
  5
70A
 10
9.678205
 20
2.559457
 30
0.0
  0
VERTEX
  8
DEFAULT
  5
70B
 10
9.575805
 20
2.559457
 30
0.0
  0
SEQEND
  8
DEFAULT
  5
70C
  0
POLYLINE
  8
DEFAULT
  5
70D
 66
     1
 10
0.0
 20
0.0
 30
0.0
210
0.0
220
0.0
230
1.0
  0
VERTEX
  8
DEFAULT
  5
70E
 10
9.525843
 20
2.126657
 30
0.0
  0
VERTEX
  8
DEFAULT
  5
70F
 10
9.516274
 20
2.088657
 30
0.0
  0
VERTEX
  8
DEFAULT
  5
710
 10
9.494328
 20
2.095796
 30
0.0
  0
VERTEX
  8
DEFAULT
  5
711
 10
9.475152
 20
2.105311
 30
0.0
  0
VERTEX
  8
DEFAULT
  5
712
 10
9.466602
 20
2.11096
 30
0.0
  0
VERTEX
  8
DEFAULT
  5
713
 10
9.458745
 20
2.117204
 30
0.0
  0
VERTEX
  8
DEFAULT
  5
714
 10
9.451581
 20
2.124041
 30
0.0
  0
VERTEX
  8
DEFAULT
  5
715
 10
9.445109
 20
2.131473
 30
0.0
  0
VERTEX
  8
DEFAULT
  5
716
 10
9.439366
 20
2.139417
 30
0.0
  0
VERTEX
  8
DEFAULT
  5
717
 10
9.434388
 20
2.14779
 30
0.0
  0
VERTEX
  8
DEFAULT
  5
718
 10
9.430177
 20
2.156594
 30
0.0
  0
VERTEX
  8
DEFAULT
  5
719
 10
9.426731
 20
2.165827
 30
0.0
  0
VERTEX
  8
DEFAULT
  5
71A
 10
9.422137
 20
2.185582
 30
0.0
  0
VERTEX
  8
DEFAULT
  5
71B
 10
9.420605
 20
2.207057
 30
0.0
  0
VERTEX
  8
DEFAULT
  5
71C
 10
9.421783
 20
2.229094
 30
0.0
  0
VERTEX
  8
DEFAULT
  5
71D
 10
9.425316
 20
2.248972
 30
0.0
  0
VERTEX
  8
DEFAULT
  5
71E
 10
9.431203
 20
2.266692
 30
0.0
  0
VERTEX
  8
DEFAULT
  5
71F
 10
9.43503
 20
2.274743
 30
0.0
  0
VERTEX
  8
DEFAULT
  5
720
 10
9.439446
 20
2.282254
 30
0.0
  0
VERTEX
  8
DEFAULT
  5
721
 10
9.449922
 20
2.295872
 30
0.0
  0
VERTEX
  8
DEFAULT
  5
722
 10
9.462509
 20
2.307758
 30
0.0
  0
VERTEX
  8
DEFAULT
  5
723
 10
9.477208
 20
2.317914
 30
0.0
  0
VERTEX
  8
DEFAULT
  5
724
 10
9.494018
 20
2.326339
 30
0.0
  0
VERTEX
  8
DEFAULT
  5
725
 10
9.512213
 20
2.332953
 30
0.0
  0
VERTEX
  8
DEFAULT
  5
726
 10
9.531068
 20
2.337678
 30
0.0
  0
VERTEX
  8
DEFAULT
  5
727
 10
9.550582
 20
2.340512
 30
0.0
  0
VERTEX
  8
DEFAULT
  5
728
 10
9.570755
 20
2.341457
 30
0.0
  0
VERTEX
  8
DEFAULT
  5
729
 10
9.592398
 20
2.34039
 30
0.0
  0
VERTEX
  8
DEFAULT
  5
72A
 10
9.612613
 20
2.337189
 30
0.0
  0
VERTEX
  8
DEFAULT
  5
72B
 10
9.631399
 20
2.331854
 30
0.0
  0
VERTEX
  8
DEFAULT
  5
72C
 10
9.648759
 20
2.324385
 30
0.0
  0
VERTEX
  8
DEFAULT
  5
72D
 10
9.664403
 20
2.314947
 30
0.0
  0
VERTEX
  8
DEFAULT
  5
72E
 10
9.678046
 20
2.303703
 30
0.0
  0
VERTEX
  8
DEFAULT
  5
72F
 10
9.689688
 20
2.290655
 30
0.0
  0
VERTEX
  8
DEFAULT
  5
730
 10
9.699327
 20
2.275801
 30
0.0
  0
VERTEX
  8
DEFAULT
  5
731
 10
9.706887
 20
2.259648
 30
0.0
  0
VERTEX
  8
DEFAULT
  5
732
 10
9.712286
 20
2.242703
 30
0.0
  0
VERTEX
  8
DEFAULT
  5
733
 10
9.715526
 20
2.224964
 30
0.0
  0
VERTEX
  8
DEFAULT
  5
734
 10
9.716605
 20
2.206432
 30
0.0
  0
VERTEX
  8
DEFAULT
  5
735
 10
9.715239
 20
2.185823
 30
0.0
  0
VERTEX
  8
DEFAULT
  5
736
 10
9.711139
 20
2.166921
 30
0.0
  0
VERTEX
  8
DEFAULT
  5
737
 10
9.704306
 20
2.149726
 30
0.0
  0
VERTEX
  8
DEFAULT
  5
738
 10
9.699865
 20
2.141769
 30
0.0
  0
VERTEX
  8
DEFAULT
  5
739
 10
9.69474
 20
2.134239
 30
0.0
  0
VERTEX
  8
DEFAULT
  5
73A
 10
9.682697
 20
2.120714
 30
0.0
  0
VERTEX
  8
DEFAULT
  5
73B
 10
9.668433
 20
2.109409
 30
0.0
  0
VERTEX
  8
DEFAULT
  5
73C
 10
9.651948
 20
2.100323
 30
0.0
  0
VERTEX
  8
DEFAULT
  5
73D
 10
9.633243
 20
2.093457
 30
0.0
  0
VERTEX
  8
DEFAULT
  5
73E
 10
9.624455
 20
2.130657
 30
0.0
  0
VERTEX
  8
DEFAULT
  5
73F
 10
9.639015
 20
2.13619
 30
0.0
  0
VERTEX
  8
DEFAULT
  5
740
 10
9.651452
 20
2.142844
 30
0.0
  0
VERTEX
  8
DEFAULT
  5
741
 10
9.661764
 20
2.15062
 30
0.0
  0
VERTEX
  8
DEFAULT
  5
742
 10
9.666124
 20
2.154928
 30
0.0
  0
VERTEX
  8
DEFAULT
  5
743
 10
9.669952
 20
2.159517
 30
0.0
  0
VERTEX
  8
DEFAULT
  5
744
 10
9.673293
 20
2.164398
 30
0.0
  0
VERTEX
  8
DEFAULT
  5
745
 10
9.676188
 20
2.169584
 30
0.0
  0
VERTEX
  8
DEFAULT
  5
746
 10
9.680642
 20
2.180869
 30
0.0
  0
VERTEX
  8
DEFAULT
  5
747
 10
9.683315
 20
2.193373
 30
0.0
  0
VERTEX
  8
DEFAULT
  5
748
 10
9.684205
 20
2.207095
 30
0.0
  0
VERTEX
  8
DEFAULT
  5
749
 10
9.683217
 20
2.222897
 30
0.0
  0
VERTEX
  8
DEFAULT
  5
74A
 10
9.680252
 20
2.237346
 30
0.0
  0
VERTEX
  8
DEFAULT
  5
74B
 10
9.675309
 20
2.250442
 30
0.0
  0
VERTEX
  8
DEFAULT
  5
74C
 10
9.672097
 20
2.256483
 30
0.0
  0
VERTEX
  8
DEFAULT
  5
74D
 10
9.66839
 20
2.262185
 30
0.0
  0
VERTEX
  8
DEFAULT
  5
74E
 10
9.659805
 20
2.27243
 30
0.0
  0
VERTEX
  8
DEFAULT
  5
74F
 10
9.649864
 20
2.281028
 30
0.0
  0
VERTEX
  8
DEFAULT
  5
750
 10
9.638569
 20
2.287981
 30
0.0
  0
VERTEX
  8
DEFAULT
  5
751
 10
9.625918
 20
2.293289
 30
0.0
  0
VERTEX
  8
DEFAULT
  5
752
 10
9.570949
 20
2.302257
 30
0.0
  0
VERTEX
  8
DEFAULT
  5
753
 10
9.536751
 20
2.299605
 30
0.0
  0
VERTEX
  8
DEFAULT
  5
754
 10
9.521392
 20
2.29629
 30
0.0
  0
VERTEX
  8
DEFAULT
  5
755
 10
9.507193
 20
2.291648
 30
0.0
  0
VERTEX
  8
DEFAULT
  5
756
 10
9.494434
 20
2.285607
 30
0.0
  0
VERTEX
  8
DEFAULT
  5
757
 10
9.483396
 20
2.278094
 30
0.0
  0
VERTEX
  8
DEFAULT
  5
758
 10
9.474078
 20
2.269109
 30
0.0
  0
VERTEX
  8
DEFAULT
  5
759
 10
9.46648
 20
2.258651
 30
0.0
  0
VERTEX
  8
DEFAULT
  5
75A
 10
9.460585
 20
2.247226
 30
0.0
  0
VERTEX
  8
DEFAULT
  5
75B
 10
9.456374
 20
2.235339
 30
0.0
  0
VERTEX
  8
DEFAULT
  5
75C
 10
9.453848
 20
2.222989
 30
0.0
  0
VERTEX
  8
DEFAULT
  5
75D
 10
9.453005
 20
2.210176
 30
0.0
  0
VERTEX
  8
DEFAULT
  5
75E
 10
9.454153
 20
2.194919
 30
0.0
  0
VERTEX
  8
DEFAULT
  5
75F
 10
9.457595
 20
2.180878
 30
0.0
  0
VERTEX
  8
DEFAULT
  5
760
 10
9.460176
 20
2.174313
 30
0.0
  0
VERTEX
  8
DEFAULT
  5
761
 10
9.463331
 20
2.168053
 30
0.0
  0
VERTEX
  8
DEFAULT
  5
762
 10
9.467059
 20
2.162097
 30
0.0
  0
VERTEX
  8
DEFAULT
  5
763
 10
9.471362
 20
2.156445
 30
0.0
  0
VERTEX
  8
DEFAULT
  5
764
 10
9.476228
 20
2.151167
 30
0.0
  0
VERTEX
  8
DEFAULT
  5
765
 10
9.48165
 20
2.146333
 30
0.0
  0
VERTEX
  8
DEFAULT
  5
766
 10
9.487628
 20
2.141943
 30
0.0
  0
VERTEX
  8
DEFAULT
  5
767
 10
9.49416
 20
2.137998
 30
0.0
  0
VERTEX
  8
DEFAULT
  5
768
 10
9.508891
 20
2.131439
 30
0.0
  0
VERTEX
  8
DEFAULT
  5
769
 10
9.525843
 20
2.126657
 30
0.0
  0
SEQEND
  8
DEFAULT
  5
76A
  0
POLYLINE
  8
DEFAULT
  5
76B
 66
     1
 10
0.0
 20
0.0
 30
0.0
210
0.0
220
0.0
230
1.0
  0
VERTEX
  8
DEFAULT
  5
76C
 10
9.425405
 20
2.043457
 30
0.0
  0
VERTEX
  8
DEFAULT
  5
76D
 10
9.711805
 20
2.043457
 30
0.0
  0
VERTEX
  8
DEFAULT
  5
76E
 10
9.711805
 20
1.936007
 30
0.0
  0
VERTEX
  8
DEFAULT
  5
76F
 10
9.709632
 20
1.906431
 30
0.0
  0
VERTEX
  8
DEFAULT
  5
770
 10
9.706915
 20
1.894081
 30
0.0
  0
VERTEX
  8
DEFAULT
  5
771
 10
9.703112
 20
1.883354
 30
0.0
  0
VERTEX
  8
DEFAULT
  5
772
 10
9.698179
 20
1.873977
 30
0.0
  0
VERTEX
  8
DEFAULT
  5
773
 10
9.692075
 20
1.865674
 30
0.0
  0
VERTEX
  8
DEFAULT
  5
774
 10
9.684799
 20
1.858446
 30
0.0
  0
VERTEX
  8
DEFAULT
  5
775
 10
9.676352
 20
1.852292
 30
0.0
  0
VERTEX
  8
DEFAULT
  5
776
 10
9.667215
 20
1.847377
 30
0.0
  0
VERTEX
  8
DEFAULT
  5
777
 10
9.65787
 20
1.843866
 30
0.0
  0
VERTEX
  8
DEFAULT
  5
778
 10
9.648317
 20
1.841759
 30
0.0
  0
VERTEX
  8
DEFAULT
  5
779
 10
9.638555
 20
1.841057
 30
0.0
  0
VERTEX
  8
DEFAULT
  5
77A
 10
9.629509
 20
1.841678
 30
0.0
  0
VERTEX
  8
DEFAULT
  5
77B
 10
9.62073
 20
1.843541
 30
0.0
  0
VERTEX
  8
DEFAULT
  5
77C
 10
9.612221
 20
1.846645
 30
0.0
  0
VERTEX
  8
DEFAULT
  5
77D
 10
9.60398
 20
1.850992
 30
0.0
  0
VERTEX
  8
DEFAULT
  5
77E
 10
9.596265
 20
1.856592
 30
0.0
  0
VERTEX
  8
DEFAULT
  5
77F
 10
9.58933
 20
1.86346
 30
0.0
  0
VERTEX
  8
DEFAULT
  5
780
 10
9.583177
 20
1.871594
 30
0.0
  0
VERTEX
  8
DEFAULT
  5
781
 10
9.577805
 20
1.880995
 30
0.0
  0
VERTEX
  8
DEFAULT
  5
782
 10
9.573324
 20
1.868749
 30
0.0
  0
VERTEX
  8
DEFAULT
  5
783
 10
9.5675
 20
1.858007
 30
0.0
  0
VERTEX
  8
DEFAULT
  5
784
 10
9.560332
 20
1.848766
 30
0.0
  0
VERTEX
  8
DEFAULT
  5
785
 10
9.556245
 20
1.84471
 30
0.0
  0
VERTEX
  8
DEFAULT
  5
786
 10
9.551821
 20
1.841029
 30
0.0
  0
VERTEX
  8
DEFAULT
  5
787
 10
9.542223
 20
1.834916
 30
0.0
  0
VERTEX
  8
DEFAULT
  5
788
 10
9.531794
 20
1.83055
 30
0.0
  0
VERTEX
  8
DEFAULT
  5
789
 10
9.520534
 20
1.827931
 30
0.0
  0
VERTEX
  8
DEFAULT
  5
78A
 10
9.508443
 20
1.827057
 30
0.0
  0
VERTEX
  8
DEFAULT
  5
78B
 10
9.471027
 20
1.83556
 30
0.0
  0
VERTEX
  8
DEFAULT
  5
78C
 10
9.444359
 20
1.856576
 30
0.0
  0
VERTEX
  8
DEFAULT
  5
78D
 10
9.430193
 20
1.887951
 30
0.0
  0
VERTEX
  8
DEFAULT
  5
78E
 10
9.425405
 20
1.934182
 30
0.0
  0
VERTEX
  8
DEFAULT
  5
78F
 10
9.425405
 20
2.043457
 30
0.0
  0
SEQEND
  8
DEFAULT
  5
790
  0
POLYLINE
  8
DEFAULT
  5
791
 66
     1
 10
0.0
 20
0.0
 30
0.0
210
0.0
220
0.0
230
1.0
  0
VERTEX
  8
DEFAULT
  5
792
 10
9.591405
 20
2.005457
 30
0.0
  0
VERTEX
  8
DEFAULT
  5
793
 10
9.591405
 20
1.94352
 30
0.0
  0
VERTEX
  8
DEFAULT
  5
794
 10
9.594737
 20
1.90737
 30
0.0
  0
VERTEX
  8
DEFAULT
  5
795
 10
9.609043
 20
1.885585
 30
0.0
  0
VERTEX
  8
DEFAULT
  5
796
 10
9.634118
 20
1.878257
 30
0.0
  0
VERTEX
  8
DEFAULT
  5
797
 10
9.659299
 20
1.885095
 30
0.0
  0
VERTEX
  8
DEFAULT
  5
798
 10
9.67419
 20
1.904635
 30
0.0
  0
VERTEX
  8
DEFAULT
  5
799
 10
9.678205
 20
1.948207
 30
0.0
  0
VERTEX
  8
DEFAULT
  5
79A
 10
9.678205
 20
2.005457
 30
0.0
  0
VERTEX
  8
DEFAULT
  5
79B
 10
9.591405
 20
2.005457
 30
0.0
  0
SEQEND
  8
DEFAULT
  5
79C
  0
POLYLINE
  8
DEFAULT
  5
79D
 66
     1
 10
0.0
 20
0.0
 30
0.0
210
0.0
220
0.0
230
1.0
  0
VERTEX
  8
DEFAULT
  5
79E
 10
9.459005
 20
2.005457
 30
0.0
  0
VERTEX
  8
DEFAULT
  5
79F
 10
9.459005
 20
1.934095
 30
0.0
  0
VERTEX
  8
DEFAULT
  5
7A0
 10
9.46038
 20
1.908289
 30
0.0
  0
VERTEX
  8
DEFAULT
  5
7A1
 10
9.468218
 20
1.886395
 30
0.0
  0
VERTEX
  8
DEFAULT
  5
7A2
 10
9.484193
 20
1.871926
 30
0.0
  0
VERTEX
  8
DEFAULT
  5
7A3
 10
9.508405
 20
1.866257
 30
0.0
  0
VERTEX
  8
DEFAULT
  5
7A4
 10
9.53634
 20
1.874504
 30
0.0
  0
VERTEX
  8
DEFAULT
  5
7A5
 10
9.553002
 20
1.897307
 30
0.0
  0
VERTEX
  8
DEFAULT
  5
7A6
 10
9.557805
 20
1.93922
 30
0.0
  0
VERTEX
  8
DEFAULT
  5
7A7
 10
9.557805
 20
2.005457
 30
0.0
  0
VERTEX
  8
DEFAULT
  5
7A8
 10
9.459005
 20
2.005457
 30
0.0
  0
SEQEND
  8
DEFAULT
  5
7A9
  0
POLYLINE
  8
DEFAULT
  5
7AA
 66
     1
 10
0.0
 20
0.0
 30
0.0
210
0.0
220
0.0
230
1.0
  0
VERTEX
  8
DEFAULT
  5
7AB
 10
9.425405
 20
1.665457
 30
0.0
  0
VERTEX
  8
DEFAULT
  5
7AC
 10
9.711805
 20
1.665457
 30
0.0
  0
VERTEX
  8
DEFAULT
  5
7AD
 10
9.711805
 20
1.558007
 30
0.0
  0
VERTEX
  8
DEFAULT
  5
7AE
 10
9.709632
 20
1.528431
 30
0.0
  0
VERTEX
  8
DEFAULT
  5
7AF
 10
9.706915
 20
1.516081
 30
0.0
  0
VERTEX
  8
DEFAULT
  5
7B0
 10
9.703112
 20
1.505354
 30
0.0
  0
VERTEX
  8
DEFAULT
  5
7B1
 10
9.698179
 20
1.495977
 30
0.0
  0
VERTEX
  8
DEFAULT
  5
7B2
 10
9.692075
 20
1.487674
 30
0.0
  0
VERTEX
  8
DEFAULT
  5
7B3
 10
9.684799
 20
1.480446
 30
0.0
  0
VERTEX
  8
DEFAULT
  5
7B4
 10
9.676352
 20
1.474292
 30
0.0
  0
VERTEX
  8
DEFAULT
  5
7B5
 10
9.667215
 20
1.469377
 30
0.0
  0
VERTEX
  8
DEFAULT
  5
7B6
 10
9.65787
 20
1.465866
 30
0.0
  0
VERTEX
  8
DEFAULT
  5
7B7
 10
9.648317
 20
1.463759
 30
0.0
  0
VERTEX
  8
DEFAULT
  5
7B8
 10
9.638555
 20
1.463057
 30
0.0
  0
VERTEX
  8
DEFAULT
  5
7B9
 10
9.629509
 20
1.463678
 30
0.0
  0
VERTEX
  8
DEFAULT
  5
7BA
 10
9.62073
 20
1.465541
 30
0.0
  0
VERTEX
  8
DEFAULT
  5
7BB
 10
9.612221
 20
1.468645
 30
0.0
  0
VERTEX
  8
DEFAULT
  5
7BC
 10
9.60398
 20
1.472992
 30
0.0
  0
VERTEX
  8
DEFAULT
  5
7BD
 10
9.596265
 20
1.478592
 30
0.0
  0
VERTEX
  8
DEFAULT
  5
7BE
 10
9.58933
 20
1.48546
 30
0.0
  0
VERTEX
  8
DEFAULT
  5
7BF
 10
9.583177
 20
1.493594
 30
0.0
  0
VERTEX
  8
DEFAULT
  5
7C0
 10
9.577805
 20
1.502995
 30
0.0
  0
VERTEX
  8
DEFAULT
  5
7C1
 10
9.573324
 20
1.490749
 30
0.0
  0
VERTEX
  8
DEFAULT
  5
7C2
 10
9.5675
 20
1.480007
 30
0.0
  0
VERTEX
  8
DEFAULT
  5
7C3
 10
9.560332
 20
1.470766
 30
0.0
  0
VERTEX
  8
DEFAULT
  5
7C4
 10
9.556245
 20
1.46671
 30
0.0
  0
VERTEX
  8
DEFAULT
  5
7C5
 10
9.551821
 20
1.463029
 30
0.0
  0
VERTEX
  8
DEFAULT
  5
7C6
 10
9.542223
 20
1.456916
 30
0.0
  0
VERTEX
  8
DEFAULT
  5
7C7
 10
9.531794
 20
1.45255
 30
0.0
  0
VERTEX
  8
DEFAULT
  5
7C8
 10
9.520534
 20
1.449931
 30
0.0
  0
VERTEX
  8
DEFAULT
  5
7C9
 10
9.508443
 20
1.449057
 30
0.0
  0
VERTEX
  8
DEFAULT
  5
7CA
 10
9.471027
 20
1.45756
 30
0.0
  0
VERTEX
  8
DEFAULT
  5
7CB
 10
9.444359
 20
1.478576
 30
0.0
  0
VERTEX
  8
DEFAULT
  5
7CC
 10
9.430193
 20
1.509951
 30
0.0
  0
VERTEX
  8
DEFAULT
  5
7CD
 10
9.425405
 20
1.556182
 30
0.0
  0
VERTEX
  8
DEFAULT
  5
7CE
 10
9.425405
 20
1.665457
 30
0.0
  0
SEQEND
  8
DEFAULT
  5
7CF
  0
POLYLINE
  8
DEFAULT
  5
7D0
 66
     1
 10
0.0
 20
0.0
 30
0.0
210
0.0
220
0.0
230
1.0
  0
VERTEX
  8
DEFAULT
  5
7D1
 10
9.591405
 20
1.627457
 30
0.0
  0
VERTEX
  8
DEFAULT
  5
7D2
 10
9.591405
 20
1.56552
 30
0.0
  0
VERTEX
  8
DEFAULT
  5
7D3
 10
9.594737
 20
1.52937
 30
0.0
  0
VERTEX
  8
DEFAULT
  5
7D4
 10
9.609043
 20
1.507585
 30
0.0
  0
VERTEX
  8
DEFAULT
  5
7D5
 10
9.634118
 20
1.500257
 30
0.0
  0
VERTEX
  8
DEFAULT
  5
7D6
 10
9.659299
 20
1.507095
 30
0.0
  0
VERTEX
  8
DEFAULT
  5
7D7
 10
9.67419
 20
1.526635
 30
0.0
  0
VERTEX
  8
DEFAULT
  5
7D8
 10
9.678205
 20
1.570207
 30
0.0
  0
VERTEX
  8
DEFAULT
  5
7D9
 10
9.678205
 20
1.627457
 30
0.0
  0
VERTEX
  8
DEFAULT
  5
7DA
 10
9.591405
 20
1.627457
 30
0.0
  0
SEQEND
  8
DEFAULT
  5
7DB
  0
POLYLINE
  8
DEFAULT
  5
7DC
 66
     1
 10
0.0
 20
0.0
 30
0.0
210
0.0
220
0.0
230
1.0
  0
VERTEX
  8
DEFAULT
  5
7DD
 10
9.459005
 20
1.627457
 30
0.0
  0
VERTEX
  8
DEFAULT
  5
7DE
 10
9.459005
 20
1.556095
 30
0.0
  0
VERTEX
  8
DEFAULT
  5
7DF
 10
9.46038
 20
1.530289
 30
0.0
  0
VERTEX
  8
DEFAULT
  5
7E0
 10
9.468218
 20
1.508395
 30
0.0
  0
VERTEX
  8
DEFAULT
  5
7E1
 10
9.484193
 20
1.493926
 30
0.0
  0
VERTEX
  8
DEFAULT
  5
7E2
 10
9.508405
 20
1.488257
 30
0.0
  0
VERTEX
  8
DEFAULT
  5
7E3
 10
9.53634
 20
1.496504
 30
0.0
  0
VERTEX
  8
DEFAULT
  5
7E4
 10
9.553002
 20
1.519307
 30
0.0
  0
VERTEX
  8
DEFAULT
  5
7E5
 10
9.557805
 20
1.56122
 30
0.0
  0
VERTEX
  8
DEFAULT
  5
7E6
 10
9.557805
 20
1.627457
 30
0.0
  0
VERTEX
  8
DEFAULT
  5
7E7
 10
9.459005
 20
1.627457
 30
0.0
  0
SEQEND
  8
DEFAULT
  5
7E8
  0
POLYLINE
  8
DEFAULT
  5
7E9
 66
     1
 10
0.0
 20
0.0
 30
0.0
210
0.0
220
0.0
230
1.0
  0
VERTEX
  8
DEFAULT
  5
7EA
 10
9.492605
 20
1.259845
 30
0.0
  0
VERTEX
  8
DEFAULT
  5
7EB
 10
9.487805
 20
1.223432
 30
0.0
  0
VERTEX
  8
DEFAULT
  5
7EC
 10
9.472822
 20
1.228633
 30
0.0
  0
VERTEX
  8
DEFAULT
  5
7ED
 10
9.459616
 20
1.235661
 30
0.0
  0
VERTEX
  8
DEFAULT
  5
7EE
 10
9.453679
 20
1.23986
 30
0.0
  0
VERTEX
  8
DEFAULT
  5
7EF
 10
9.448186
 20
1.244516
 30
0.0
  0
VERTEX
  8
DEFAULT
  5
7F0
 10
9.443138
 20
1.249629
 30
0.0
  0
VERTEX
  8
DEFAULT
  5
7F1
 10
9.438534
 20
1.255198
 30
0.0
  0
VERTEX
  8
DEFAULT
  5
7F2
 10
9.434425
 20
1.261197
 30
0.0
  0
VERTEX
  8
DEFAULT
  5
7F3
 10
9.430865
 20
1.267597
 30
0.0
  0
VERTEX
  8
DEFAULT
  5
7F4
 10
9.425388
 20
1.281605
 30
0.0
  0
VERTEX
  8
DEFAULT
  5
7F5
 10
9.422101
 20
1.297221
 30
0.0
  0
VERTEX
  8
DEFAULT
  5
7F6
 10
9.421005
 20
1.314445
 30
0.0
  0
VERTEX
  8
DEFAULT
  5
7F7
 10
9.422754
 20
1.335973
 30
0.0
  0
VERTEX
  8
DEFAULT
  5
7F8
 10
9.424939
 20
1.345855
 30
0.0
  0
VERTEX
  8
DEFAULT
  5
7F9
 10
9.427999
 20
1.35515
 30
0.0
  0
VERTEX
  8
DEFAULT
  5
7FA
 10
9.431933
 20
1.363858
 30
0.0
  0
VERTEX
  8
DEFAULT
  5
7FB
 10
9.436741
 20
1.371977
 30
0.0
  0
VERTEX
  8
DEFAULT
  5
7FC
 10
9.442424
 20
1.37951
 30
0.0
  0
VERTEX
  8
DEFAULT
  5
7FD
 10
9.44898
 20
1.386454
 30
0.0
  0
VERTEX
  8
DEFAULT
  5
7FE
 10
9.456326
 20
1.392689
 30
0.0
  0
VERTEX
  8
DEFAULT
  5
7FF
 10
9.464375
 20
1.398093
 30
0.0
  0
VERTEX
  8
DEFAULT
  5
800
 10
9.473128
 20
1.402665
 30
0.0
  0
VERTEX
  8
DEFAULT
  5
801
 10
9.482585
 20
1.406407
 30
0.0
  0
VERTEX
  8
DEFAULT
  5
802
 10
9.492746
 20
1.409316
 30
0.0
  0
VERTEX
  8
DEFAULT
  5
803
 10
9.50361
 20
1.411395
 30
0.0
  0
VERTEX
  8
DEFAULT
  5
804
 10
9.527449
 20
1.413057
 30
0.0
  0
VERTEX
  8
DEFAULT
  5
805
 10
9.552112
 20
1.411376
 30
0.0
  0
VERTEX
  8
DEFAULT
  5
806
 10
9.563347
 20
1.409275
 30
0.0
  0
VERTEX
  8
DEFAULT
  5
807
 10
9.57385
 20
1.406334
 30
0.0
  0
VERTEX
  8
DEFAULT
  5
808
 10
9.583622
 20
1.402552
 30
0.0
  0
VERTEX
  8
DEFAULT
  5
809
 10
9.592663
 20
1.39793
 30
0.0
  0
VERTEX
  8
DEFAULT
  5
80A
 10
9.600974
 20
1.392467
 30
0.0
  0
VERTEX
  8
DEFAULT
  5
80B
 10
9.608552
 20
1.386164
 30
0.0
  0
VERTEX
  8
DEFAULT
  5
80C
 10
9.615315
 20
1.37919
 30
0.0
  0
VERTEX
  8
DEFAULT
  5
80D
 10
9.621176
 20
1.371717
 30
0.0
  0
VERTEX
  8
DEFAULT
  5
80E
 10
9.626135
 20
1.363745
 30
0.0
  0
VERTEX
  8
DEFAULT
  5
80F
 10
9.630192
 20
1.355273
 30
0.0
  0
VERTEX
  8
DEFAULT
  5
810
 10
9.633348
 20
1.346301
 30
0.0
  0
VERTEX
  8
DEFAULT
  5
811
 10
9.635602
 20
1.33683
 30
0.0
  0
VERTEX
  8
DEFAULT
  5
812
 10
9.636955
 20
1.326859
 30
0.0
  0
VERTEX
  8
DEFAULT
  5
813
 10
9.637405
 20
1.316389
 30
0.0
  0
VERTEX
  8
DEFAULT
  5
814
 10
9.636964
 20
1.306248
 30
0.0
  0
VERTEX
  8
DEFAULT
  5
815
 10
9.635638
 20
1.296582
 30
0.0
  0
VERTEX
  8
DEFAULT
  5
816
 10
9.633429
 20
1.287392
 30
0.0
  0
VERTEX
  8
DEFAULT
  5
817
 10
9.630337
 20
1.278677
 30
0.0
  0
VERTEX
  8
DEFAULT
  5
818
 10
9.626361
 20
1.270437
 30
0.0
  0
VERTEX
  8
DEFAULT
  5
819
 10
9.621501
 20
1.262672
 30
0.0
  0
VERTEX
  8
DEFAULT
  5
81A
 10
9.615757
 20
1.255382
 30
0.0
  0
VERTEX
  8
DEFAULT
  5
81B
 10
9.60913
 20
1.248567
 30
0.0
  0
VERTEX
  8
DEFAULT
  5
81C
 10
9.601702
 20
1.2424
 30
0.0
  0
VERTEX
  8
DEFAULT
  5
81D
 10
9.593555
 20
1.237056
 30
0.0
  0
VERTEX
  8
DEFAULT
  5
81E
 10
9.584688
 20
1.232534
 30
0.0
  0
VERTEX
  8
DEFAULT
  5
81F
 10
9.575102
 20
1.228835
 30
0.0
  0
VERTEX
  8
DEFAULT
  5
820
 10
9.564797
 20
1.225957
 30
0.0
  0
VERTEX
  8
DEFAULT
  5
821
 10
9.553773
 20
1.223902
 30
0.0
  0
VERTEX
  8
DEFAULT
  5
822
 10
9.529568
 20
1.222257
 30
0.0
  0
VERTEX
  8
DEFAULT
  5
823
 10
9.520205
 20
1.222451
 30
0.0
  0
VERTEX
  8
DEFAULT
  5
824
 10
9.520205
 20
1.377057
 30
0.0
  0
VERTEX
  8
DEFAULT
  5
825
 10
9.504142
 20
1.375119
 30
0.0
  0
VERTEX
  8
DEFAULT
  5
826
 10
9.490077
 20
1.371256
 30
0.0
  0
VERTEX
  8
DEFAULT
  5
827
 10
9.483794
 20
1.368602
 30
0.0
  0
VERTEX
  8
DEFAULT
  5
828
 10
9.478011
 20
1.365466
 30
0.0
  0
VERTEX
  8
DEFAULT
  5
829
 10
9.472727
 20
1.361849
 30
0.0
  0
VERTEX
  8
DEFAULT
  5
82A
 10
9.467943
 20
1.357751
 30
0.0
  0
VERTEX
  8
DEFAULT
  5
82B
 10
9.463692
 20
1.353278
 30
0.0
  0
VERTEX
  8
DEFAULT
  5
82C
 10
9.460008
 20
1.348536
 30
0.0
  0
VERTEX
  8
DEFAULT
  5
82D
 10
9.45689
 20
1.343526
 30
0.0
  0
VERTEX
  8
DEFAULT
  5
82E
 10
9.45434
 20
1.338248
 30
0.0
  0
VERTEX
  8
DEFAULT
  5
82F
 10
9.452356
 20
1.332701
 30
0.0
  0
VERTEX
  8
DEFAULT
  5
830
 10
9.450939
 20
1.326886
 30
0.0
  0
VERTEX
  8
DEFAULT
  5
831
 10
9.450089
 20
1.320803
 30
0.0
  0
VERTEX
  8
DEFAULT
  5
832
 10
9.449805
 20
1.314451
 30
0.0
  0
VERTEX
  8
DEFAULT
  5
833
 10
9.450444
 20
1.305151
 30
0.0
  0
VERTEX
  8
DEFAULT
  5
834
 10
9.452358
 20
1.296558
 30
0.0
  0
VERTEX
  8
DEFAULT
  5
835
 10
9.455548
 20
1.288672
 30
0.0
  0
VERTEX
  8
DEFAULT
  5
836
 10
9.460015
 20
1.281492
 30
0.0
  0
VERTEX
  8
DEFAULT
  5
837
 10
9.462757
 20
1.278167
 30
0.0
  0
VERTEX
  8
DEFAULT
  5
838
 10
9.46588
 20
1.275019
 30
0.0
  0
VERTEX
  8
DEFAULT
  5
839
 10
9.473267
 20
1.269253
 30
0.0
  0
VERTEX
  8
DEFAULT
  5
83A
 10
9.482176
 20
1.264195
 30
0.0
  0
VERTEX
  8
DEFAULT
  5
83B
 10
9.492605
 20
1.259845
 30
0.0
  0
SEQEND
  8
DEFAULT
  5
83C
  0
POLYLINE
  8
DEFAULT
  5
83D
 66
     1
 10
0.0
 20
0.0
 30
0.0
210
0.0
220
0.0
230
1.0
  0
VERTEX
  8
DEFAULT
  5
83E
 10
9.549005
 20
1.375057
 30
0.0
  0
VERTEX
  8
DEFAULT
  5
83F
 10
9.549005
 20
1.259457
 30
0.0
  0
VERTEX
  8
DEFAULT
  5
840
 10
9.56128
 20
1.261162
 30
0.0
  0
VERTEX
  8
DEFAULT
  5
841
 10
9.571918
 20
1.26394
 30
0.0
  0
VERTEX
  8
DEFAULT
  5
842
 10
9.580918
 20
1.26779
 30
0.0
  0
VERTEX
  8
DEFAULT
  5
843
 10
9.584804
 20
1.270118
 30
0.0
  0
VERTEX
  8
DEFAULT
  5
844
 10
9.58828
 20
1.272714
 30
0.0
  0
VERTEX
  8
DEFAULT
  5
845
 10
9.593044
 20
1.27706
 30
0.0
  0
VERTEX
  8
DEFAULT
  5
846
 10
9.597173
 20
1.281716
 30
0.0
  0
VERTEX
  8
DEFAULT
  5
847
 10
9.600666
 20
1.286684
 30
0.0
  0
VERTEX
  8
DEFAULT
  5
848
 10
9.603524
 20
1.291962
 30
0.0
  0
VERTEX
  8
DEFAULT
  5
849
 10
9.605747
 20
1.297551
 30
0.0
  0
VERTEX
  8
DEFAULT
  5
84A
 10
9.607335
 20
1.303451
 30
0.0
  0
VERTEX
  8
DEFAULT
  5
84B
 10
9.608288
 20
1.309661
 30
0.0
  0
VERTEX
  8
DEFAULT
  5
84C
 10
9.608605
 20
1.316182
 30
0.0
  0
VERTEX
  8
DEFAULT
  5
84D
 10
9.608352
 20
1.322106
 30
0.0
  0
VERTEX
  8
DEFAULT
  5
84E
 10
9.607592
 20
1.327788
 30
0.0
  0
VERTEX
  8
DEFAULT
  5
84F
 10
9.606325
 20
1.33323
 30
0.0
  0
VERTEX
  8
DEFAULT
  5
850
 10
9.604551
 20
1.338431
 30
0.0
  0
VERTEX
  8
DEFAULT
  5
851
 10
9.60227
 20
1.343392
 30
0.0
  0
VERTEX
  8
DEFAULT
  5
852
 10
9.599482
 20
1.348112
 30
0.0
  0
VERTEX
  8
DEFAULT
  5
853
 10
9.596188
 20
1.352591
 30
0.0
  0
VERTEX
  8
DEFAULT
  5
854
 10
9.592387
 20
1.356829
 30
0.0
  0
VERTEX
  8
DEFAULT
  5
855
 10
9.588161
 20
1.360717
 30
0.0
  0
VERTEX
  8
DEFAULT
  5
856
 10
9.583593
 20
1.364145
 30
0.0
  0
VERTEX
  8
DEFAULT
  5
857
 10
9.578684
 20
1.367114
 30
0.0
  0
VERTEX
  8
DEFAULT
  5
858
 10
9.573432
 20
1.369622
 30
0.0
  0
VERTEX
  8
DEFAULT
  5
859
 10
9.567838
 20
1.371671
 30
0.0
  0
VERTEX
  8
DEFAULT
  5
85A
 10
9.561903
 20
1.373259
 30
0.0
  0
VERTEX
  8
DEFAULT
  5
85B
 10
9.549005
 20
1.375057
 30
0.0
  0
SEQEND
  8
DEFAULT
  5
85C
  0
POLYLINE
  8
DEFAULT
  5
85D
 66
     1
 10
0.0
 20
0.0
 30
0.0
210
0.0
220
0.0
230
1.0
  0
VERTEX
  8
DEFAULT
  5
85E
 10
9.425405
 20
1.045057
 30
0.0
  0
VERTEX
  8
DEFAULT
  5
85F
 10
9.451749
 20
1.045057
 30
0.0
  0
VERTEX
  8
DEFAULT
  5
860
 10
9.444544
 20
1.050277
 30
0.0
  0
VERTEX
  8
DEFAULT
  5
861
 10
9.438299
 20
1.056076
 30
0.0
  0
VERTEX
  8
DEFAULT
  5
862
 10
9.433015
 20
1.062454
 30
0.0
  0
VERTEX
  8
DEFAULT
  5
863
 10
9.428691
 20
1.069412
 30
0.0
  0
VERTEX
  8
DEFAULT
  5
864
 10
9.425329
 20
1.076949
 30
0.0
  0
VERTEX
  8
DEFAULT
  5
865
 10
9.422927
 20
1.085066
 30
0.0
  0
VERTEX
  8
DEFAULT
  5
866
 10
9.421486
 20
1.093763
 30
0.0
  0
VERTEX
  8
DEFAULT
  5
867
 10
9.421005
 20
1.103039
 30
0.0
  0
VERTEX
  8
DEFAULT
  5
868
 10
9.421858
 20
1.115185
 30
0.0
  0
VERTEX
  8
DEFAULT
  5
869
 10
9.424417
 20
1.126832
 30
0.0
  0
VERTEX
  8
DEFAULT
  5
86A
 10
9.428682
 20
1.137977
 30
0.0
  0
VERTEX
  8
DEFAULT
  5
86B
 10
9.434652
 20
1.148623
 30
0.0
  0
VERTEX
  8
DEFAULT
  5
86C
 10
9.442152
 20
1.158433
 30
0.0
  0
VERTEX
  8
DEFAULT
  5
86D
 10
9.451004
 20
1.167071
 30
0.0
  0
VERTEX
  8
DEFAULT
  5
86E
 10
9.461208
 20
1.174539
 30
0.0
  0
VERTEX
  8
DEFAULT
  5
86F
 10
9.472765
 20
1.180835
 30
0.0
  0
VERTEX
  8
DEFAULT
  5
870
 10
9.485455
 20
1.185832
 30
0.0
  0
VERTEX
  8
DEFAULT
  5
871
 10
9.499059
 20
1.189402
 30
0.0
  0
VERTEX
  8
DEFAULT
  5
872
 10
9.513578
 20
1.191543
 30
0.0
  0
VERTEX
  8
DEFAULT
  5
873
 10
9.529012
 20
1.192257
 30
0.0
  0
VERTEX
  8
DEFAULT
  5
874
 10
9.544149
 20
1.191611
 30
0.0
  0
VERTEX
  8
DEFAULT
  5
875
 10
9.558569
 20
1.189671
 30
0.0
  0
VERTEX
  8
DEFAULT
  5
876
 10
9.57227
 20
1.186439
 30
0.0
  0
VERTEX
  8
DEFAULT
  5
877
 10
9.585252
 20
1.181914
 30
0.0
  0
VERTEX
  8
DEFAULT
  5
878
 10
9.597139
 20
1.176095
 30
0.0
  0
VERTEX
  8
DEFAULT
  5
879
 10
9.607551
 20
1.168985
 30
0.0
  0
VERTEX
  8
DEFAULT
  5
87A
 10
9.616489
 20
1.160581
 30
0.0
  0
VERTEX
  8
DEFAULT
  5
87B
 10
9.623952
 20
1.150885
 30
0.0
  0
VERTEX
  8
DEFAULT
  5
87C
 10
9.629838
 20
1.140238
 30
0.0
  0
VERTEX
  8
DEFAULT
  5
87D
 10
9.634042
 20
1.128982
 30
0.0
  0
VERTEX
  8
DEFAULT
  5
87E
 10
9.636565
 20
1.117115
 30
0.0
  0
VERTEX
  8
DEFAULT
  5
87F
 10
9.637405
 20
1.104639
 30
0.0
  0
VERTEX
  8
DEFAULT
  5
880
 10
9.629468
 20
1.071267
 30
0.0
  0
VERTEX
  8
DEFAULT
  5
881
 10
9.608793
 20
1.047457
 30
0.0
  0
VERTEX
  8
DEFAULT
  5
882
 10
9.711805
 20
1.047457
 30
0.0
  0
VERTEX
  8
DEFAULT
  5
883
 10
9.711805
 20
1.012257
 30
0.0
  0
VERTEX
  8
DEFAULT
  5
884
 10
9.425405
 20
1.012257
 30
0.0
  0
VERTEX
  8
DEFAULT
  5
885
 10
9.425405
 20
1.045057
 30
0.0
  0
SEQEND
  8
DEFAULT
  5
886
  0
POLYLINE
  8
DEFAULT
  5
887
 66
     1
 10
0.0
 20
0.0
 30
0.0
210
0.0
220
0.0
230
1.0
  0
VERTEX
  8
DEFAULT
  5
888
 10
9.528905
 20
1.156257
 30
0.0
  0
VERTEX
  8
DEFAULT
  5
889
 10
9.510288
 20
1.155205
 30
0.0
  0
VERTEX
  8
DEFAULT
  5
88A
 10
9.494178
 20
1.152047
 30
0.0
  0
VERTEX
  8
DEFAULT
  5
88B
 10
9.487064
 20
1.149679
 30
0.0
  0
VERTEX
  8
DEFAULT
  5
88C
 10
9.480577
 20
1.146784
 30
0.0
  0
VERTEX
  8
DEFAULT
  5
88D
 10
9.474717
 20
1.143364
 30
0.0
  0
VERTEX
  8
DEFAULT
  5
88E
 10
9.469484
 20
1.139417
 30
0.0
  0
VERTEX
  8
DEFAULT
  5
88F
 10
9.464872
 20
1.135112
 30
0.0
  0
VERTEX
  8
DEFAULT
  5
890
 10
9.460874
 20
1.130617
 30
0.0
  0
VERTEX
  8
DEFAULT
  5
891
 10
9.457492
 20
1.125933
 30
0.0
  0
VERTEX
  8
DEFAULT
  5
892
 10
9.454725
 20
1.12106
 30
0.0
  0
VERTEX
  8
DEFAULT
  5
893
 10
9.452573
 20
1.115996
 30
0.0
  0
VERTEX
  8
DEFAULT
  5
894
 10
9.451035
 20
1.110744
 30
0.0
  0
VERTEX
  8
DEFAULT
  5
895
 10
9.450113
 20
1.105302
 30
0.0
  0
VERTEX
  8
DEFAULT
  5
896
 10
9.449805
 20
1.09967
 30
0.0
  0
VERTEX
  8
DEFAULT
  5
897
 10
9.450099
 20
1.094002
 30
0.0
  0
VERTEX
  8
DEFAULT
  5
898
 10
9.45098
 20
1.088551
 30
0.0
  0
VERTEX
  8
DEFAULT
  5
899
 10
9.452449
 20
1.083318
 30
0.0
  0
VERTEX
  8
DEFAULT
  5
89A
 10
9.454505
 20
1.078302
 30
0.0
  0
VERTEX
  8
DEFAULT
  5
89B
 10
9.457149
 20
1.073503
 30
0.0
  0
VERTEX
  8
DEFAULT
  5
89C
 10
9.46038
 20
1.068922
 30
0.0
  0
VERTEX
  8
DEFAULT
  5
89D
 10
9.464199
 20
1.064557
 30
0.0
  0
VERTEX
  8
DEFAULT
  5
89E
 10
9.468605
 20
1.06041
 30
0.0
  0
VERTEX
  8
DEFAULT
  5
89F
 10
9.473615
 20
1.056625
 30
0.0
  0
VERTEX
  8
DEFAULT
  5
8A0
 10
9.479242
 20
1.053343
 30
0.0
  0
VERTEX
  8
DEFAULT
  5
8A1
 10
9.485487
 20
1.050567
 30
0.0
  0
VERTEX
  8
DEFAULT
  5
8A2
 10
9.492351
 20
1.048296
 30
0.0
  0
VERTEX
  8
DEFAULT
  5
8A3
 10
9.507932
 20
1.045267
 30
0.0
  0
VERTEX
  8
DEFAULT
  5
8A4
 10
9.525987
 20
1.044257
 30
0.0
  0
VERTEX
  8
DEFAULT
  5
8A5
 10
9.545812
 20
1.045285
 30
0.0
  0
VERTEX
  8
DEFAULT
  5
8A6
 10
9.562811
 20
1.048369
 30
0.0
  0
VERTEX
  8
DEFAULT
  5
8A7
 10
9.570251
 20
1.050682
 30
0.0
  0
VERTEX
  8
DEFAULT
  5
8A8
 10
9.576985
 20
1.053509
 30
0.0
  0
VERTEX
  8
DEFAULT
  5
8A9
 10
9.583012
 20
1.056849
 30
0.0
  0
VERTEX
  8
DEFAULT
  5
8AA
 10
9.588334
 20
1.060704
 30
0.0
  0
VERTEX
  8
DEFAULT
  5
8AB
 10
9.592991
 20
1.064935
 30
0.0
  0
VERTEX
  8
DEFAULT
  5
8AC
 10
9.597028
 20
1.069405
 30
0.0
  0
VERTEX
  8
DEFAULT
  5
8AD
 10
9.600443
 20
1.074114
 30
0.0
  0
VERTEX
  8
DEFAULT
  5
8AE
 10
9.603238
 20
1.079061
 30
0.0
  0
VERTEX
  8
DEFAULT
  5
8AF
 10
9.605411
 20
1.084247
 30
0.0
  0
VERTEX
  8
DEFAULT
  5
8B0
 10
9.606963
 20
1.089672
 30
0.0
  0
VERTEX
  8
DEFAULT
  5
8B1
 10
9.607895
 20
1.095336
 30
0.0
  0
VERTEX
  8
DEFAULT
  5
8B2
 10
9.608205
 20
1.101239
 30
0.0
  0
VERTEX
  8
DEFAULT
  5
8B3
 10
9.607907
 20
1.106991
 30
0.0
  0
VERTEX
  8
DEFAULT
  5
8B4
 10
9.607012
 20
1.112502
 30
0.0
  0
VERTEX
  8
DEFAULT
  5
8B5
 10
9.60552
 20
1.117772
 30
0.0
  0
VERTEX
  8
DEFAULT
  5
8B6
 10
9.603432
 20
1.122799
 30
0.0
  0
VERTEX
  8
DEFAULT
  5
8B7
 10
9.600747
 20
1.127586
 30
0.0
  0
VERTEX
  8
DEFAULT
  5
8B8
 10
9.597465
 20
1.13213
 30
0.0
  0
VERTEX
  8
DEFAULT
  5
8B9
 10
9.593587
 20
1.136433
 30
0.0
  0
VERTEX
  8
DEFAULT
  5
8BA
 10
9.589112
 20
1.140495
 30
0.0
  0
VERTEX
  8
DEFAULT
  5
8BB
 10
9.583994
 20
1.144189
 30
0.0
  0
VERTEX
  8
DEFAULT
  5
8BC
 10
9.578189
 20
1.147391
 30
0.0
  0
VERTEX
  8
DEFAULT
  5
8BD
 10
9.571695
 20
1.1501
 30
0.0
  0
VERTEX
  8
DEFAULT
  5
8BE
 10
9.564513
 20
1.152317
 30
0.0
  0
VERTEX
  8
DEFAULT
  5
8BF
 10
9.548086
 20
1.155272
 30
0.0
  0
VERTEX
  8
DEFAULT
  5
8C0
 10
9.528905
 20
1.156257
 30
0.0
  0
SEQEND
  8
DEFAULT
  5
8C1
  0
POLYLINE
  8
DEFAULT
  5
8C2
 66
     1
 10
0.0
 20
0.0
 30
0.0
210
0.0
220
0.0
230
1.0
  0
VERTEX
  8
DEFAULT
  5
8C3
 10
0.183413
 20
5.463126
 30
0.0
  0
VERTEX
  8
DEFAULT
  5
8C4
 10
0.149813
 20
5.463126
 30
0.0
  0
VERTEX
  8
DEFAULT
  5
8C5
 10
0.149813
 20
5.652726
 30
0.0
  0
VERTEX
  8
DEFAULT
  5
8C6
 10
0.174257
 20
5.648582
 30
0.0
  0
VERTEX
  8
DEFAULT
  5
8C7
 10
0.212335
 20
5.625207
 30
0.0
  0
VERTEX
  8
DEFAULT
  5
8C8
 10
0.255532
 20
5.579169
 30
0.0
  0
VERTEX
  8
DEFAULT
  5
8C9
 10
0.316219
 20
5.516101
 30
0.0
  0
VERTEX
  8
DEFAULT
  5
8CA
 10
0.327254
 20
5.508849
 30
0.0
  0
VERTEX
  8
DEFAULT
  5
8CB
 10
0.337997
 20
5.503669
 30
0.0
  0
VERTEX
  8
DEFAULT
  5
8CC
 10
0.348448
 20
5.500562
 30
0.0
  0
VERTEX
  8
DEFAULT
  5
8CD
 10
0.353564
 20
5.499785
 30
0.0
  0
VERTEX
  8
DEFAULT
  5
8CE
 10
0.358607
 20
5.499526
 30
0.0
  0
VERTEX
  8
DEFAULT
  5
8CF
 10
0.363728
 20
5.49976
 30
0.0
  0
VERTEX
  8
DEFAULT
  5
8D0
 10
0.368645
 20
5.500463
 30
0.0
  0
VERTEX
  8
DEFAULT
  5
8D1
 10
0.373358
 20
5.501635
 30
0.0
  0
VERTEX
  8
DEFAULT
  5
8D2
 10
0.377866
 20
5.503276
 30
0.0
  0
VERTEX
  8
DEFAULT
  5
8D3
 10
0.38217
 20
5.505385
 30
0.0
  0
VERTEX
  8
DEFAULT
  5
8D4
 10
0.38627
 20
5.507963
 30
0.0
  0
VERTEX
  8
DEFAULT
  5
8D5
 10
0.390166
 20
5.51101
 30
0.0
  0
VERTEX
  8
DEFAULT
  5
8D6
 10
0.393857
 20
5.514526
 30
0.0
  0
VERTEX
  8
DEFAULT
  5
8D7
 10
0.397222
 20
5.518418
 30
0.0
  0
VERTEX
  8
DEFAULT
  5
8D8
 10
0.400138
 20
5.522596
 30
0.0
  0
VERTEX
  8
DEFAULT
  5
8D9
 10
0.402605
 20
5.527058
 30
0.0
  0
VERTEX
  8
DEFAULT
  5
8DA
 10
0.404624
 20
5.531805
 30
0.0
  0
VERTEX
  8
DEFAULT
  5
8DB
 10
0.406194
 20
5.536838
 30
0.0
  0
VERTEX
  8
DEFAULT
  5
8DC
 10
0.407316
 20
5.542155
 30
0.0
  0
VERTEX
  8
DEFAULT
  5
8DD
 10
0.408213
 20
5.553644
 30
0.0
  0
VERTEX
  8
DEFAULT
  5
8DE
 10
0.407265
 20
5.565754
 30
0.0
  0
VERTEX
  8
DEFAULT
  5
8DF
 10
0.406079
 20
5.571331
 30
0.0
  0
VERTEX
  8
DEFAULT
  5
8E0
 10
0.404419
 20
5.576589
 30
0.0
  0
VERTEX
  8
DEFAULT
  5
8E1
 10
0.402285
 20
5.581528
 30
0.0
  0
VERTEX
  8
DEFAULT
  5
8E2
 10
0.399677
 20
5.586149
 30
0.0
  0
VERTEX
  8
DEFAULT
  5
8E3
 10
0.396595
 20
5.590452
 30
0.0
  0
VERTEX
  8
DEFAULT
  5
8E4
 10
0.393038
 20
5.594435
 30
0.0
  0
VERTEX
  8
DEFAULT
  5
8E5
 10
0.389062
 20
5.598023
 30
0.0
  0
VERTEX
  8
DEFAULT
  5
8E6
 10
0.384721
 20
5.60114
 30
0.0
  0
VERTEX
  8
DEFAULT
  5
8E7
 10
0.380015
 20
5.603784
 30
0.0
  0
VERTEX
  8
DEFAULT
  5
8E8
 10
0.374944
 20
5.605956
 30
0.0
  0
VERTEX
  8
DEFAULT
  5
8E9
 10
0.369509
 20
5.607657
 30
0.0
  0
VERTEX
  8
DEFAULT
  5
8EA
 10
0.363708
 20
5.608885
 30
0.0
  0
VERTEX
  8
DEFAULT
  5
8EB
 10
0.351013
 20
5.609926
 30
0.0
  0
VERTEX
  8
DEFAULT
  5
8EC
 10
0.354613
 20
5.645926
 30
0.0
  0
VERTEX
  8
DEFAULT
  5
8ED
 10
0.373623
 20
5.642786
 30
0.0
  0
VERTEX
  8
DEFAULT
  5
8EE
 10
0.382226
 20
5.640254
 30
0.0
  0
VERTEX
  8
DEFAULT
  5
8EF
 10
0.390229
 20
5.63708
 30
0.0
  0
VERTEX
  8
DEFAULT
  5
8F0
 10
0.39763
 20
5.633265
 30
0.0
  0
VERTEX
  8
DEFAULT
  5
8F1
 10
0.404429
 20
5.628808
 30
0.0
  0
VERTEX
  8
DEFAULT
  5
8F2
 10
0.410628
 20
5.62371
 30
0.0
  0
VERTEX
  8
DEFAULT
  5
8F3
 10
0.416226
 20
5.617969
 30
0.0
  0
VERTEX
  8
DEFAULT
  5
8F4
 10
0.421191
 20
5.611649
 30
0.0
  0
VERTEX
  8
DEFAULT
  5
8F5
 10
0.425495
 20
5.604809
 30
0.0
  0
VERTEX
  8
DEFAULT
  5
8F6
 10
0.429137
 20
5.59745
 30
0.0
  0
VERTEX
  8
DEFAULT
  5
8F7
 10
0.432116
 20
5.589573
 30
0.0
  0
VERTEX
  8
DEFAULT
  5
8F8
 10
0.436089
 20
5.572259
 30
0.0
  0
VERTEX
  8
DEFAULT
  5
8F9
 10
0.437413
 20
5.552869
 30
0.0
  0
VERTEX
  8
DEFAULT
  5
8FA
 10
0.435983
 20
5.53332
 30
0.0
  0
VERTEX
  8
DEFAULT
  5
8FB
 10
0.434195
 20
5.524351
 30
0.0
  0
VERTEX
  8
DEFAULT
  5
8FC
 10
0.431693
 20
5.51592
 30
0.0
  0
VERTEX
  8
DEFAULT
  5
8FD
 10
0.428475
 20
5.508027
 30
0.0
  0
VERTEX
  8
DEFAULT
  5
8FE
 10
0.424542
 20
5.500671
 30
0.0
  0
VERTEX
  8
DEFAULT
  5
8FF
 10
0.419895
 20
5.493853
 30
0.0
  0
VERTEX
  8
DEFAULT
  5
900
 10
0.414532
 20
5.487573
 30
0.0
  0
VERTEX
  8
DEFAULT
  5
901
 10
0.40864
 20
5.481937
 30
0.0
  0
VERTEX
  8
DEFAULT
  5
902
 10
0.402407
 20
5.477052
 30
0.0
  0
VERTEX
  8
DEFAULT
  5
903
 10
0.395831
 20
5.472919
 30
0.0
  0
VERTEX
  8
DEFAULT
  5
904
 10
0.388913
 20
5.469537
 30
0.0
  0
VERTEX
  8
DEFAULT
  5
905
 10
0.381653
 20
5.466907
 30
0.0
  0
VERTEX
  8
DEFAULT
  5
906
 10
0.374051
 20
5.465029
 30
0.0
  0
VERTEX
  8
DEFAULT
  5
907
 10
0.366106
 20
5.463901
 30
0.0
  0
VERTEX
  8
DEFAULT
  5
908
 10
0.357819
 20
5.463526
 30
0.0
  0
VERTEX
  8
DEFAULT
  5
909
 10
0.323985
 20
5.470569
 30
0.0
  0
VERTEX
  8
DEFAULT
  5
90A
 10
0.288979
 20
5.493948
 30
0.0
  0
VERTEX
  8
DEFAULT
  5
90B
 10
0.238538
 20
5.548138
 30
0.0
  0
VERTEX
  8
DEFAULT
  5
90C
 10
0.202469
 20
5.588851
 30
0.0
  0
VERTEX
  8
DEFAULT
  5
90D
 10
0.183413
 20
5.603744
 30
0.0
  0
VERTEX
  8
DEFAULT
  5
90E
 10
0.183413
 20
5.463126
 30
0.0
  0
SEQEND
  8
DEFAULT
  5
90F
  0
POLYLINE
  8
DEFAULT
  5
910
 66
     1
 10
0.0
 20
0.0
 30
0.0
210
0.0
220
0.0
230
1.0
  0
VERTEX
  8
DEFAULT
  5
911
 10
0.291113
 20
5.425126
 30
0.0
  0
VERTEX
  8
DEFAULT
  5
912
 10
0.336968
 20
5.422518
 30
0.0
  0
VERTEX
  8
DEFAULT
  5
913
 10
0.356197
 20
5.419258
 30
0.0
  0
VERTEX
  8
DEFAULT
  5
914
 10
0.37296
 20
5.414694
 30
0.0
  0
VERTEX
  8
DEFAULT
  5
915
 10
0.387592
 20
5.408845
 30
0.0
  0
VERTEX
  8
DEFAULT
  5
916
 10
0.400429
 20
5.401728
 30
0.0
  0
VERTEX
  8
DEFAULT
  5
917
 10
0.41147
 20
5.393343
 30
0.0
  0
VERTEX
  8
DEFAULT
  5
918
 10
0.420716
 20
5.383691
 30
0.0
  0
VERTEX
  8
DEFAULT
  5
919
 10
0.424629
 20
5.378382
 30
0.0
  0
VERTEX
  8
DEFAULT
  5
91A
 10
0.428021
 20
5.372742
 30
0.0
  0
VERTEX
  8
DEFAULT
  5
91B
 10
0.430891
 20
5.366769
 30
0.0
  0
VERTEX
  8
DEFAULT
  5
91C
 10
0.433239
 20
5.360464
 30
0.0
  0
VERTEX
  8
DEFAULT
  5
91D
 10
0.436369
 20
5.346859
 30
0.0
  0
VERTEX
  8
DEFAULT
  5
91E
 10
0.437413
 20
5.331926
 30
0.0
  0
VERTEX
  8
DEFAULT
  5
91F
 10
0.436833
 20
5.32077
 30
0.0
  0
VERTEX
  8
DEFAULT
  5
920
 10
0.435093
 20
5.310308
 30
0.0
  0
VERTEX
  8
DEFAULT
  5
921
 10
0.432194
 20
5.30054
 30
0.0
  0
VERTEX
  8
DEFAULT
  5
922
 10
0.428135
 20
5.291466
 30
0.0
  0
VERTEX
  8
DEFAULT
  5
923
 10
0.422983
 20
5.28313
 30
0.0
  0
VERTEX
  8
DEFAULT
  5
924
 10
0.416806
 20
5.275574
 30
0.0
  0
VERTEX
  8
DEFAULT
  5
925
 10
0.409603
 20
5.268799
 30
0.0
  0
VERTEX
  8
DEFAULT
  5
926
 10
0.401376
 20
5.262804
 30
0.0
  0
VERTEX
  8
DEFAULT
  5
927
 10
0.358794
 20
5.24516
 30
0.0
  0
VERTEX
  8
DEFAULT
  5
928
 10
0.291113
 20
5.238726
 30
0.0
  0
VERTEX
  8
DEFAULT
  5
929
 10
0.245554
 20
5.241309
 30
0.0
  0
VERTEX
  8
DEFAULT
  5
92A
 10
0.2264
 20
5.244539
 30
0.0
  0
VERTEX
  8
DEFAULT
  5
92B
 10
0.209663
 20
5.24906
 30
0.0
  0
VERTEX
  8
DEFAULT
  5
92C
 10
0.195026
 20
5.254867
 30
0.0
  0
VERTEX
  8
DEFAULT
  5
92D
 10
0.182172
 20
5.261953
 30
0.0
  0
VERTEX
  8
DEFAULT
  5
92E
 10
0.1711
 20
5.270318
 30
0.0
  0
VERTEX
  8
DEFAULT
  5
92F
 10
0.16181
 20
5.279963
 30
0.0
  0
VERTEX
  8
DEFAULT
  5
930
 10
0.157873
 20
5.285275
 30
0.0
  0
VERTEX
  8
DEFAULT
  5
931
 10
0.154461
 20
5.290924
 30
0.0
  0
VERTEX
  8
DEFAULT
  5
932
 10
0.151574
 20
5.296912
 30
0.0
  0
VERTEX
  8
DEFAULT
  5
933
 10
0.149212
 20
5.303238
 30
0.0
  0
VERTEX
  8
DEFAULT
  5
934
 10
0.146063
 20
5.316905
 30
0.0
  0
VERTEX
  8
DEFAULT
  5
935
 10
0.145013
 20
5.331926
 30
0.0
  0
VERTEX
  8
DEFAULT
  5
936
 10
0.145474
 20
5.341983
 30
0.0
  0
VERTEX
  8
DEFAULT
  5
937
 10
0.146856
 20
5.351485
 30
0.0
  0
VERTEX
  8
DEFAULT
  5
938
 10
0.14916
 20
5.360433
 30
0.0
  0
VERTEX
  8
DEFAULT
  5
939
 10
0.152385
 20
5.368826
 30
0.0
  0
VERTEX
  8
DEFAULT
  5
93A
 10
0.156532
 20
5.376664
 30
0.0
  0
VERTEX
  8
DEFAULT
  5
93B
 10
0.1616
 20
5.383948
 30
0.0
  0
VERTEX
  8
DEFAULT
  5
93C
 10
0.167589
 20
5.390676
 30
0.0
  0
VERTEX
  8
DEFAULT
  5
93D
 10
0.174501
 20
5.396851
 30
0.0
  0
VERTEX
  8
DEFAULT
  5
93E
 10
0.184185
 20
5.403478
 30
0.0
  0
VERTEX
  8
DEFAULT
  5
93F
 10
0.195268
 20
5.409221
 30
0.0
  0
VERTEX
  8
DEFAULT
  5
940
 10
0.207748
 20
5.414081
 30
0.0
  0
VERTEX
  8
DEFAULT
  5
941
 10
0.221626
 20
5.418057
 30
0.0
  0
VERTEX
  8
DEFAULT
  5
942
 10
0.253574
 20
5.423359
 30
0.0
  0
VERTEX
  8
DEFAULT
  5
943
 10
0.291113
 20
5.425126
 30
0.0
  0
SEQEND
  8
DEFAULT
  5
944
  0
POLYLINE
  8
DEFAULT
  5
945
 66
     1
 10
0.0
 20
0.0
 30
0.0
210
0.0
220
0.0
230
1.0
  0
VERTEX
  8
DEFAULT
  5
946
 10
0.291013
 20
5.389126
 30
0.0
  0
VERTEX
  8
DEFAULT
  5
947
 10
0.232168
 20
5.385001
 30
0.0
  0
VERTEX
  8
DEFAULT
  5
948
 10
0.211645
 20
5.379846
 30
0.0
  0
VERTEX
  8
DEFAULT
  5
949
 10
0.203609
 20
5.376495
 30
0.0
  0
VERTEX
  8
DEFAULT
  5
94A
 10
0.197057
 20
5.372629
 30
0.0
  0
VERTEX
  8
DEFAULT
  5
94B
 10
0.191609
 20
5.368384
 30
0.0
  0
VERTEX
  8
DEFAULT
  5
94C
 10
0.186888
 20
5.363899
 30
0.0
  0
VERTEX
  8
DEFAULT
  5
94D
 10
0.182893
 20
5.359172
 30
0.0
  0
VERTEX
  8
DEFAULT
  5
94E
 10
0.179624
 20
5.354205
 30
0.0
  0
VERTEX
  8
DEFAULT
  5
94F
 10
0.177082
 20
5.348996
 30
0.0
  0
VERTEX
  8
DEFAULT
  5
950
 10
0.175266
 20
5.343547
 30
0.0
  0
VERTEX
  8
DEFAULT
  5
951
 10
0.174176
 20
5.337857
 30
0.0
  0
VERTEX
  8
DEFAULT
  5
952
 10
0.173813
 20
5.331926
 30
0.0
  0
VERTEX
  8
DEFAULT
  5
953
 10
0.174178
 20
5.325995
 30
0.0
  0
VERTEX
  8
DEFAULT
  5
954
 10
0.175272
 20
5.320304
 30
0.0
  0
VERTEX
  8
DEFAULT
  5
955
 10
0.177095
 20
5.314855
 30
0.0
  0
VERTEX
  8
DEFAULT
  5
956
 10
0.179648
 20
5.309647
 30
0.0
  0
VERTEX
  8
DEFAULT
  5
957
 10
0.18293
 20
5.304679
 30
0.0
  0
VERTEX
  8
DEFAULT
  5
958
 10
0.186942
 20
5.299953
 30
0.0
  0
VERTEX
  8
DEFAULT
  5
959
 10
0.191683
 20
5.295467
 30
0.0
  0
VERTEX
  8
DEFAULT
  5
95A
 10
0.197154
 20
5.291223
 30
0.0
  0
VERTEX
  8
DEFAULT
  5
95B
 10
0.203726
 20
5.287356
 30
0.0
  0
VERTEX
  8
DEFAULT
  5
95C
 10
0.211773
 20
5.284005
 30
0.0
  0
VERTEX
  8
DEFAULT
  5
95D
 10
0.232289
 20
5.27885
 30
0.0
  0
VERTEX
  8
DEFAULT
  5
95E
 10
0.291013
 20
5.274726
 30
0.0
  0
VERTEX
  8
DEFAULT
  5
95F
 10
0.349858
 20
5.278837
 30
0.0
  0
VERTEX
  8
DEFAULT
  5
960
 10
0.370381
 20
5.283977
 30
0.0
  0
VERTEX
  8
DEFAULT
  5
961
 10
0.378417
 20
5.287318
 30
0.0
  0
VERTEX
  8
DEFAULT
  5
962
 10
0.384969
 20
5.291173
 30
0.0
  0
VERTEX
  8
DEFAULT
  5
963
 10
0.390417
 20
5.295413
 30
0.0
  0
VERTEX
  8
DEFAULT
  5
964
 10
0.395138
 20
5.299911
 30
0.0
  0
VERTEX
  8
DEFAULT
  5
965
 10
0.399133
 20
5.304667
 30
0.0
  0
VERTEX
  8
DEFAULT
  5
966
 10
0.402402
 20
5.309681
 30
0.0
  0
VERTEX
  8
DEFAULT
  5
967
 10
0.404944
 20
5.314953
 30
0.0
  0
VERTEX
  8
DEFAULT
  5
968
 10
0.40676
 20
5.320482
 30
0.0
  0
VERTEX
  8
DEFAULT
  5
969
 10
0.40785
 20
5.326269
 30
0.0
  0
VERTEX
  8
DEFAULT
  5
96A
 10
0.408213
 20
5.332313
 30
0.0
  0
VERTEX
  8
DEFAULT
  5
96B
 10
0.407893
 20
5.338215
 30
0.0
  0
VERTEX
  8
DEFAULT
  5
96C
 10
0.406931
 20
5.343815
 30
0.0
  0
VERTEX
  8
DEFAULT
  5
96D
 10
0.405328
 20
5.349113
 30
0.0
  0
VERTEX
  8
DEFAULT
  5
96E
 10
0.403085
 20
5.354109
 30
0.0
  0
VERTEX
  8
DEFAULT
  5
96F
 10
0.4002
 20
5.358802
 30
0.0
  0
VERTEX
  8
DEFAULT
  5
970
 10
0.396675
 20
5.363193
 30
0.0
  0
VERTEX
  8
DEFAULT
  5
971
 10
0.392508
 20
5.367282
 30
0.0
  0
VERTEX
  8
DEFAULT
  5
972
 10
0.387701
 20
5.371069
 30
0.0
  0
VERTEX
  8
DEFAULT
  5
973
 10
0.380464
 20
5.375301
 30
0.0
  0
VERTEX
  8
DEFAULT
  5
974
 10
0.371842
 20
5.378969
 30
0.0
  0
VERTEX
  8
DEFAULT
  5
975
 10
0.350441
 20
5.384612
 30
0.0
  0
VERTEX
  8
DEFAULT
  5
976
 10
0.323498
 20
5.387997
 30
0.0
  0
VERTEX
  8
DEFAULT
  5
977
 10
0.291013
 20
5.389126
 30
0.0
  0
SEQEND
  8
DEFAULT
  5
978
  0
POLYLINE
  8
DEFAULT
  5
979
 66
     1
 10
0.0
 20
0.0
 30
0.0
210
0.0
220
0.0
230
1.0
  0
VERTEX
  8
DEFAULT
  5
97A
 10
0.291113
 20
5.202726
 30
0.0
  0
VERTEX
  8
DEFAULT
  5
97B
 10
0.336968
 20
5.200118
 30
0.0
  0
VERTEX
  8
DEFAULT
  5
97C
 10
0.356197
 20
5.196858
 30
0.0
  0
VERTEX
  8
DEFAULT
  5
97D
 10
0.37296
 20
5.192294
 30
0.0
  0
VERTEX
  8
DEFAULT
  5
97E
 10
0.387592
 20
5.186445
 30
0.0
  0
VERTEX
  8
DEFAULT
  5
97F
 10
0.400429
 20
5.179328
 30
0.0
  0
VERTEX
  8
DEFAULT
  5
980
 10
0.41147
 20
5.170943
 30
0.0
  0
VERTEX
  8
DEFAULT
  5
981
 10
0.420716
 20
5.161291
 30
0.0
  0
VERTEX
  8
DEFAULT
  5
982
 10
0.424629
 20
5.155982
 30
0.0
  0
VERTEX
  8
DEFAULT
  5
983
 10
0.428021
 20
5.150342
 30
0.0
  0
VERTEX
  8
DEFAULT
  5
984
 10
0.430891
 20
5.144369
 30
0.0
  0
VERTEX
  8
DEFAULT
  5
985
 10
0.433239
 20
5.138064
 30
0.0
  0
VERTEX
  8
DEFAULT
  5
986
 10
0.436369
 20
5.124459
 30
0.0
  0
VERTEX
  8
DEFAULT
  5
987
 10
0.437413
 20
5.109526
 30
0.0
  0
VERTEX
  8
DEFAULT
  5
988
 10
0.436833
 20
5.09837
 30
0.0
  0
VERTEX
  8
DEFAULT
  5
989
 10
0.435093
 20
5.087908
 30
0.0
  0
VERTEX
  8
DEFAULT
  5
98A
 10
0.432194
 20
5.07814
 30
0.0
  0
VERTEX
  8
DEFAULT
  5
98B
 10
0.428135
 20
5.069066
 30
0.0
  0
VERTEX
  8
DEFAULT
  5
98C
 10
0.422983
 20
5.06073
 30
0.0
  0
VERTEX
  8
DEFAULT
  5
98D
 10
0.416806
 20
5.053174
 30
0.0
  0
VERTEX
  8
DEFAULT
  5
98E
 10
0.409603
 20
5.046399
 30
0.0
  0
VERTEX
  8
DEFAULT
  5
98F
 10
0.401376
 20
5.040404
 30
0.0
  0
VERTEX
  8
DEFAULT
  5
990
 10
0.358794
 20
5.02276
 30
0.0
  0
VERTEX
  8
DEFAULT
  5
991
 10
0.291113
 20
5.016326
 30
0.0
  0
VERTEX
  8
DEFAULT
  5
992
 10
0.245554
 20
5.018909
 30
0.0
  0
VERTEX
  8
DEFAULT
  5
993
 10
0.2264
 20
5.022139
 30
0.0
  0
VERTEX
  8
DEFAULT
  5
994
 10
0.209663
 20
5.02666
 30
0.0
  0
VERTEX
  8
DEFAULT
  5
995
 10
0.195026
 20
5.032467
 30
0.0
  0
VERTEX
  8
DEFAULT
  5
996
 10
0.182172
 20
5.039553
 30
0.0
  0
VERTEX
  8
DEFAULT
  5
997
 10
0.1711
 20
5.047918
 30
0.0
  0
VERTEX
  8
DEFAULT
  5
998
 10
0.16181
 20
5.057563
 30
0.0
  0
VERTEX
  8
DEFAULT
  5
999
 10
0.157873
 20
5.062875
 30
0.0
  0
VERTEX
  8
DEFAULT
  5
99A
 10
0.154461
 20
5.068524
 30
0.0
  0
VERTEX
  8
DEFAULT
  5
99B
 10
0.151574
 20
5.074512
 30
0.0
  0
VERTEX
  8
DEFAULT
  5
99C
 10
0.149212
 20
5.080838
 30
0.0
  0
VERTEX
  8
DEFAULT
  5
99D
 10
0.146063
 20
5.094505
 30
0.0
  0
VERTEX
  8
DEFAULT
  5
99E
 10
0.145013
 20
5.109526
 30
0.0
  0
VERTEX
  8
DEFAULT
  5
99F
 10
0.145474
 20
5.119583
 30
0.0
  0
VERTEX
  8
DEFAULT
  5
9A0
 10
0.146856
 20
5.129085
 30
0.0
  0
VERTEX
  8
DEFAULT
  5
9A1
 10
0.14916
 20
5.138033
 30
0.0
  0
VERTEX
  8
DEFAULT
  5
9A2
 10
0.152385
 20
5.146426
 30
0.0
  0
VERTEX
  8
DEFAULT
  5
9A3
 10
0.156532
 20
5.154264
 30
0.0
  0
VERTEX
  8
DEFAULT
  5
9A4
 10
0.1616
 20
5.161548
 30
0.0
  0
VERTEX
  8
DEFAULT
  5
9A5
 10
0.167589
 20
5.168276
 30
0.0
  0
VERTEX
  8
DEFAULT
  5
9A6
 10
0.174501
 20
5.174451
 30
0.0
  0
VERTEX
  8
DEFAULT
  5
9A7
 10
0.184185
 20
5.181078
 30
0.0
  0
VERTEX
  8
DEFAULT
  5
9A8
 10
0.195268
 20
5.186821
 30
0.0
  0
VERTEX
  8
DEFAULT
  5
9A9
 10
0.207748
 20
5.191681
 30
0.0
  0
VERTEX
  8
DEFAULT
  5
9AA
 10
0.221626
 20
5.195657
 30
0.0
  0
VERTEX
  8
DEFAULT
  5
9AB
 10
0.253574
 20
5.200959
 30
0.0
  0
VERTEX
  8
DEFAULT
  5
9AC
 10
0.291113
 20
5.202726
 30
0.0
  0
SEQEND
  8
DEFAULT
  5
9AD
  0
POLYLINE
  8
DEFAULT
  5
9AE
 66
     1
 10
0.0
 20
0.0
 30
0.0
210
0.0
220
0.0
230
1.0
  0
VERTEX
  8
DEFAULT
  5
9AF
 10
0.291013
 20
5.166726
 30
0.0
  0
VERTEX
  8
DEFAULT
  5
9B0
 10
0.232168
 20
5.162601
 30
0.0
  0
VERTEX
  8
DEFAULT
  5
9B1
 10
0.211645
 20
5.157446
 30
0.0
  0
VERTEX
  8
DEFAULT
  5
9B2
 10
0.203609
 20
5.154095
 30
0.0
  0
VERTEX
  8
DEFAULT
  5
9B3
 10
0.197057
 20
5.150229
 30
0.0
  0
VERTEX
  8
DEFAULT
  5
9B4
 10
0.191609
 20
5.145984
 30
0.0
  0
VERTEX
  8
DEFAULT
  5
9B5
 10
0.186888
 20
5.141499
 30
0.0
  0
VERTEX
  8
DEFAULT
  5
9B6
 10
0.182893
 20
5.136772
 30
0.0
  0
VERTEX
  8
DEFAULT
  5
9B7
 10
0.179624
 20
5.131805
 30
0.0
  0
VERTEX
  8
DEFAULT
  5
9B8
 10
0.177082
 20
5.126596
 30
0.0
  0
VERTEX
  8
DEFAULT
  5
9B9
 10
0.175266
 20
5.121147
 30
0.0
  0
VERTEX
  8
DEFAULT
  5
9BA
 10
0.174176
 20
5.115457
 30
0.0
  0
VERTEX
  8
DEFAULT
  5
9BB
 10
0.173813
 20
5.109526
 30
0.0
  0
VERTEX
  8
DEFAULT
  5
9BC
 10
0.174178
 20
5.103595
 30
0.0
  0
VERTEX
  8
DEFAULT
  5
9BD
 10
0.175272
 20
5.097904
 30
0.0
  0
VERTEX
  8
DEFAULT
  5
9BE
 10
0.177095
 20
5.092455
 30
0.0
  0
VERTEX
  8
DEFAULT
  5
9BF
 10
0.179648
 20
5.087247
 30
0.0
  0
VERTEX
  8
DEFAULT
  5
9C0
 10
0.18293
 20
5.082279
 30
0.0
  0
VERTEX
  8
DEFAULT
  5
9C1
 10
0.186942
 20
5.077553
 30
0.0
  0
VERTEX
  8
DEFAULT
  5
9C2
 10
0.191683
 20
5.073067
 30
0.0
  0
VERTEX
  8
DEFAULT
  5
9C3
 10
0.197154
 20
5.068823
 30
0.0
  0
VERTEX
  8
DEFAULT
  5
9C4
 10
0.203726
 20
5.064956
 30
0.0
  0
VERTEX
  8
DEFAULT
  5
9C5
 10
0.211773
 20
5.061605
 30
0.0
  0
VERTEX
  8
DEFAULT
  5
9C6
 10
0.232289
 20
5.05645
 30
0.0
  0
VERTEX
  8
DEFAULT
  5
9C7
 10
0.291013
 20
5.052326
 30
0.0
  0
VERTEX
  8
DEFAULT
  5
9C8
 10
0.349858
 20
5.056437
 30
0.0
  0
VERTEX
  8
DEFAULT
  5
9C9
 10
0.370381
 20
5.061577
 30
0.0
  0
VERTEX
  8
DEFAULT
  5
9CA
 10
0.378417
 20
5.064918
 30
0.0
  0
VERTEX
  8
DEFAULT
  5
9CB
 10
0.384969
 20
5.068773
 30
0.0
  0
VERTEX
  8
DEFAULT
  5
9CC
 10
0.390417
 20
5.073013
 30
0.0
  0
VERTEX
  8
DEFAULT
  5
9CD
 10
0.395138
 20
5.077511
 30
0.0
  0
VERTEX
  8
DEFAULT
  5
9CE
 10
0.399133
 20
5.082267
 30
0.0
  0
VERTEX
  8
DEFAULT
  5
9CF
 10
0.402402
 20
5.087281
 30
0.0
  0
VERTEX
  8
DEFAULT
  5
9D0
 10
0.404944
 20
5.092553
 30
0.0
  0
VERTEX
  8
DEFAULT
  5
9D1
 10
0.40676
 20
5.098082
 30
0.0
  0
VERTEX
  8
DEFAULT
  5
9D2
 10
0.40785
 20
5.103869
 30
0.0
  0
VERTEX
  8
DEFAULT
  5
9D3
 10
0.408213
 20
5.109913
 30
0.0
  0
VERTEX
  8
DEFAULT
  5
9D4
 10
0.407893
 20
5.115815
 30
0.0
  0
VERTEX
  8
DEFAULT
  5
9D5
 10
0.406931
 20
5.121415
 30
0.0
  0
VERTEX
  8
DEFAULT
  5
9D6
 10
0.405328
 20
5.126713
 30
0.0
  0
VERTEX
  8
DEFAULT
  5
9D7
 10
0.403085
 20
5.131709
 30
0.0
  0
VERTEX
  8
DEFAULT
  5
9D8
 10
0.4002
 20
5.136402
 30
0.0
  0
VERTEX
  8
DEFAULT
  5
9D9
 10
0.396675
 20
5.140793
 30
0.0
  0
VERTEX
  8
DEFAULT
  5
9DA
 10
0.392508
 20
5.144882
 30
0.0
  0
VERTEX
  8
DEFAULT
  5
9DB
 10
0.387701
 20
5.148669
 30
0.0
  0
VERTEX
  8
DEFAULT
  5
9DC
 10
0.380464
 20
5.152901
 30
0.0
  0
VERTEX
  8
DEFAULT
  5
9DD
 10
0.371842
 20
5.156569
 30
0.0
  0
VERTEX
  8
DEFAULT
  5
9DE
 10
0.350441
 20
5.162212
 30
0.0
  0
VERTEX
  8
DEFAULT
  5
9DF
 10
0.323498
 20
5.165597
 30
0.0
  0
VERTEX
  8
DEFAULT
  5
9E0
 10
0.291013
 20
5.166726
 30
0.0
  0
SEQEND
  8
DEFAULT
  5
9E1
  0
POLYLINE
  8
DEFAULT
  5
9E2
 66
     1
 10
0.0
 20
0.0
 30
0.0
210
0.0
220
0.0
230
1.0
  0
VERTEX
  8
DEFAULT
  5
9E3
 10
0.183413
 20
4.795926
 30
0.0
  0
VERTEX
  8
DEFAULT
  5
9E4
 10
0.149813
 20
4.795926
 30
0.0
  0
VERTEX
  8
DEFAULT
  5
9E5
 10
0.149813
 20
4.985526
 30
0.0
  0
VERTEX
  8
DEFAULT
  5
9E6
 10
0.174257
 20
4.981382
 30
0.0
  0
VERTEX
  8
DEFAULT
  5
9E7
 10
0.212335
 20
4.958007
 30
0.0
  0
VERTEX
  8
DEFAULT
  5
9E8
 10
0.255532
 20
4.911969
 30
0.0
  0
VERTEX
  8
DEFAULT
  5
9E9
 10
0.316219
 20
4.848901
 30
0.0
  0
VERTEX
  8
DEFAULT
  5
9EA
 10
0.327254
 20
4.841649
 30
0.0
  0
VERTEX
  8
DEFAULT
  5
9EB
 10
0.337997
 20
4.836469
 30
0.0
  0
VERTEX
  8
DEFAULT
  5
9EC
 10
0.348448
 20
4.833362
 30
0.0
  0
VERTEX
  8
DEFAULT
  5
9ED
 10
0.353564
 20
4.832585
 30
0.0
  0
VERTEX
  8
DEFAULT
  5
9EE
 10
0.358607
 20
4.832326
 30
0.0
  0
VERTEX
  8
DEFAULT
  5
9EF
 10
0.363728
 20
4.83256
 30
0.0
  0
VERTEX
  8
DEFAULT
  5
9F0
 10
0.368645
 20
4.833263
 30
0.0
  0
VERTEX
  8
DEFAULT
  5
9F1
 10
0.373358
 20
4.834435
 30
0.0
  0
VERTEX
  8
DEFAULT
  5
9F2
 10
0.377866
 20
4.836076
 30
0.0
  0
VERTEX
  8
DEFAULT
  5
9F3
 10
0.38217
 20
4.838185
 30
0.0
  0
VERTEX
  8
DEFAULT
  5
9F4
 10
0.38627
 20
4.840763
 30
0.0
  0
VERTEX
  8
DEFAULT
  5
9F5
 10
0.390166
 20
4.84381
 30
0.0
  0
VERTEX
  8
DEFAULT
  5
9F6
 10
0.393857
 20
4.847326
 30
0.0
  0
VERTEX
  8
DEFAULT
  5
9F7
 10
0.397222
 20
4.851218
 30
0.0
  0
VERTEX
  8
DEFAULT
  5
9F8
 10
0.400138
 20
4.855396
 30
0.0
  0
VERTEX
  8
DEFAULT
  5
9F9
 10
0.402605
 20
4.859858
 30
0.0
  0
VERTEX
  8
DEFAULT
  5
9FA
 10
0.404624
 20
4.864605
 30
0.0
  0
VERTEX
  8
DEFAULT
  5
9FB
 10
0.406194
 20
4.869638
 30
0.0
  0
VERTEX
  8
DEFAULT
  5
9FC
 10
0.407316
 20
4.874955
 30
0.0
  0
VERTEX
  8
DEFAULT
  5
9FD
 10
0.408213
 20
4.886444
 30
0.0
  0
VERTEX
  8
DEFAULT
  5
9FE
 10
0.407265
 20
4.898554
 30
0.0
  0
VERTEX
  8
DEFAULT
  5
9FF
 10
0.406079
 20
4.904131
 30
0.0
  0
VERTEX
  8
DEFAULT
  5
A00
 10
0.404419
 20
4.909389
 30
0.0
  0
VERTEX
  8
DEFAULT
  5
A01
 10
0.402285
 20
4.914328
 30
0.0
  0
VERTEX
  8
DEFAULT
  5
A02
 10
0.399677
 20
4.918949
 30
0.0
  0
VERTEX
  8
DEFAULT
  5
A03
 10
0.396595
 20
4.923252
 30
0.0
  0
VERTEX
  8
DEFAULT
  5
A04
 10
0.393038
 20
4.927235
 30
0.0
  0
VERTEX
  8
DEFAULT
  5
A05
 10
0.389062
 20
4.930823
 30
0.0
  0
VERTEX
  8
DEFAULT
  5
A06
 10
0.384721
 20
4.93394
 30
0.0
  0
VERTEX
  8
DEFAULT
  5
A07
 10
0.380015
 20
4.936584
 30
0.0
  0
VERTEX
  8
DEFAULT
  5
A08
 10
0.374944
 20
4.938756
 30
0.0
  0
VERTEX
  8
DEFAULT
  5
A09
 10
0.369509
 20
4.940457
 30
0.0
  0
VERTEX
  8
DEFAULT
  5
A0A
 10
0.363708
 20
4.941685
 30
0.0
  0
VERTEX
  8
DEFAULT
  5
A0B
 10
0.351013
 20
4.942726
 30
0.0
  0
VERTEX
  8
DEFAULT
  5
A0C
 10
0.354613
 20
4.978726
 30
0.0
  0
VERTEX
  8
DEFAULT
  5
A0D
 10
0.373623
 20
4.975586
 30
0.0
  0
VERTEX
  8
DEFAULT
  5
A0E
 10
0.382226
 20
4.973054
 30
0.0
  0
VERTEX
  8
DEFAULT
  5
A0F
 10
0.390229
 20
4.96988
 30
0.0
  0
VERTEX
  8
DEFAULT
  5
A10
 10
0.39763
 20
4.966065
 30
0.0
  0
VERTEX
  8
DEFAULT
  5
A11
 10
0.404429
 20
4.961608
 30
0.0
  0
VERTEX
  8
DEFAULT
  5
A12
 10
0.410628
 20
4.95651
 30
0.0
  0
VERTEX
  8
DEFAULT
  5
A13
 10
0.416226
 20
4.950769
 30
0.0
  0
VERTEX
  8
DEFAULT
  5
A14
 10
0.421191
 20
4.944449
 30
0.0
  0
VERTEX
  8
DEFAULT
  5
A15
 10
0.425495
 20
4.937609
 30
0.0
  0
VERTEX
  8
DEFAULT
  5
A16
 10
0.429137
 20
4.93025
 30
0.0
  0
VERTEX
  8
DEFAULT
  5
A17
 10
0.432116
 20
4.922373
 30
0.0
  0
VERTEX
  8
DEFAULT
  5
A18
 10
0.436089
 20
4.905059
 30
0.0
  0
VERTEX
  8
DEFAULT
  5
A19
 10
0.437413
 20
4.885669
 30
0.0
  0
VERTEX
  8
DEFAULT
  5
A1A
 10
0.435983
 20
4.86612
 30
0.0
  0
VERTEX
  8
DEFAULT
  5
A1B
 10
0.434195
 20
4.857151
 30
0.0
  0
VERTEX
  8
DEFAULT
  5
A1C
 10
0.431693
 20
4.84872
 30
0.0
  0
VERTEX
  8
DEFAULT
  5
A1D
 10
0.428475
 20
4.840827
 30
0.0
  0
VERTEX
  8
DEFAULT
  5
A1E
 10
0.424542
 20
4.833471
 30
0.0
  0
VERTEX
  8
DEFAULT
  5
A1F
 10
0.419895
 20
4.826653
 30
0.0
  0
VERTEX
  8
DEFAULT
  5
A20
 10
0.414532
 20
4.820373
 30
0.0
  0
VERTEX
  8
DEFAULT
  5
A21
 10
0.40864
 20
4.814737
 30
0.0
  0
VERTEX
  8
DEFAULT
  5
A22
 10
0.402407
 20
4.809852
 30
0.0
  0
VERTEX
  8
DEFAULT
  5
A23
 10
0.395831
 20
4.805719
 30
0.0
  0
VERTEX
  8
DEFAULT
  5
A24
 10
0.388913
 20
4.802337
 30
0.0
  0
VERTEX
  8
DEFAULT
  5
A25
 10
0.381653
 20
4.799707
 30
0.0
  0
VERTEX
  8
DEFAULT
  5
A26
 10
0.374051
 20
4.797829
 30
0.0
  0
VERTEX
  8
DEFAULT
  5
A27
 10
0.366106
 20
4.796701
 30
0.0
  0
VERTEX
  8
DEFAULT
  5
A28
 10
0.357819
 20
4.796326
 30
0.0
  0
VERTEX
  8
DEFAULT
  5
A29
 10
0.323985
 20
4.803369
 30
0.0
  0
VERTEX
  8
DEFAULT
  5
A2A
 10
0.288979
 20
4.826748
 30
0.0
  0
VERTEX
  8
DEFAULT
  5
A2B
 10
0.238538
 20
4.880938
 30
0.0
  0
VERTEX
  8
DEFAULT
  5
A2C
 10
0.202469
 20
4.921651
 30
0.0
  0
VERTEX
  8
DEFAULT
  5
A2D
 10
0.183413
 20
4.936544
 30
0.0
  0
VERTEX
  8
DEFAULT
  5
A2E
 10
0.183413
 20
4.795926
 30
0.0
  0
SEQEND
  8
DEFAULT
  5
A2F
  0
POLYLINE
  8
DEFAULT
  5
A30
 66
     1
 10
0.0
 20
0.0
 30
0.0
210
0.0
220
0.0
230
1.0
  0
VERTEX
  8
DEFAULT
  5
A31
 10
0.235813
 20
4.762326
 30
0.0
  0
VERTEX
  8
DEFAULT
  5
A32
 10
0.271013
 20
4.762326
 30
0.0
  0
VERTEX
  8
DEFAULT
  5
A33
 10
0.271013
 20
4.653526
 30
0.0
  0
VERTEX
  8
DEFAULT
  5
A34
 10
0.235813
 20
4.653526
 30
0.0
  0
VERTEX
  8
DEFAULT
  5
A35
 10
0.235813
 20
4.762326
 30
0.0
  0
SEQEND
  8
DEFAULT
  5
A36
  0
POLYLINE
  8
DEFAULT
  5
A37
 66
     1
 10
0.0
 20
0.0
 30
0.0
210
0.0
220
0.0
230
1.0
  0
VERTEX
  8
DEFAULT
  5
A38
 10
0.149813
 20
4.492726
 30
0.0
  0
VERTEX
  8
DEFAULT
  5
A39
 10
0.149813
 20
4.527926
 30
0.0
  0
VERTEX
  8
DEFAULT
  5
A3A
 10
0.373913
 20
4.527926
 30
0.0
  0
VERTEX
  8
DEFAULT
  5
A3B
 10
0.349688
 20
4.561269
 30
0.0
  0
VERTEX
  8
DEFAULT
  5
A3C
 10
0.331519
 20
4.598326
 30
0.0
  0
VERTEX
  8
DEFAULT
  5
A3D
 10
0.365513
 20
4.598326
 30
0.0
  0
VERTEX
  8
DEFAULT
  5
A3E
 10
0.399119
 20
4.546704
 30
0.0
  0
VERTEX
  8
DEFAULT
  5
A3F
 10
0.437413
 20
4.515413
 30
0.0
  0
VERTEX
  8
DEFAULT
  5
A40
 10
0.437413
 20
4.492726
 30
0.0
  0
VERTEX
  8
DEFAULT
  5
A41
 10
0.149813
 20
4.492726
 30
0.0
  0
SEQEND
  8
DEFAULT
  5
A42
  0
POLYLINE
  8
DEFAULT
  5
A43
 66
     1
 10
0.0
 20
0.0
 30
0.0
210
0.0
220
0.0
230
1.0
  0
VERTEX
  8
DEFAULT
  5
A44
 10
0.149813
 20
4.270326
 30
0.0
  0
VERTEX
  8
DEFAULT
  5
A45
 10
0.149813
 20
4.305526
 30
0.0
  0
VERTEX
  8
DEFAULT
  5
A46
 10
0.373913
 20
4.305526
 30
0.0
  0
VERTEX
  8
DEFAULT
  5
A47
 10
0.349688
 20
4.338869
 30
0.0
  0
VERTEX
  8
DEFAULT
  5
A48
 10
0.331519
 20
4.375926
 30
0.0
  0
VERTEX
  8
DEFAULT
  5
A49
 10
0.365513
 20
4.375926
 30
0.0
  0
VERTEX
  8
DEFAULT
  5
A4A
 10
0.399119
 20
4.324304
 30
0.0
  0
VERTEX
  8
DEFAULT
  5
A4B
 10
0.437413
 20
4.293013
 30
0.0
  0
VERTEX
  8
DEFAULT
  5
A4C
 10
0.437413
 20
4.270326
 30
0.0
  0
VERTEX
  8
DEFAULT
  5
A4D
 10
0.149813
 20
4.270326
 30
0.0
  0
SEQEND
  8
DEFAULT
  5
A4E
  0
POLYLINE
  8
DEFAULT
  5
A4F
 66
     1
 10
0.0
 20
0.0
 30
0.0
210
0.0
220
0.0
230
1.0
  0
VERTEX
  8
DEFAULT
  5
A50
 10
0.235813
 20
4.184326
 30
0.0
  0
VERTEX
  8
DEFAULT
  5
A51
 10
0.271013
 20
4.184326
 30
0.0
  0
VERTEX
  8
DEFAULT
  5
A52
 10
0.271013
 20
4.075526
 30
0.0
  0
VERTEX
  8
DEFAULT
  5
A53
 10
0.235813
 20
4.075526
 30
0.0
  0
VERTEX
  8
DEFAULT
  5
A54
 10
0.235813
 20
4.184326
 30
0.0
  0
SEQEND
  8
DEFAULT
  5
A55
  0
POLYLINE
  8
DEFAULT
  5
A56
 66
     1
 10
0.0
 20
0.0
 30
0.0
210
0.0
220
0.0
230
1.0
  0
VERTEX
  8
DEFAULT
  5
A57
 10
0.291113
 20
4.046726
 30
0.0
  0
VERTEX
  8
DEFAULT
  5
A58
 10
0.336968
 20
4.044118
 30
0.0
  0
VERTEX
  8
DEFAULT
  5
A59
 10
0.356197
 20
4.040858
 30
0.0
  0
VERTEX
  8
DEFAULT
  5
A5A
 10
0.37296
 20
4.036294
 30
0.0
  0
VERTEX
  8
DEFAULT
  5
A5B
 10
0.387592
 20
4.030445
 30
0.0
  0
VERTEX
  8
DEFAULT
  5
A5C
 10
0.400429
 20
4.023328
 30
0.0
  0
VERTEX
  8
DEFAULT
  5
A5D
 10
0.41147
 20
4.014943
 30
0.0
  0
VERTEX
  8
DEFAULT
  5
A5E
 10
0.420716
 20
4.005291
 30
0.0
  0
VERTEX
  8
DEFAULT
  5
A5F
 10
0.424629
 20
3.999982
 30
0.0
  0
VERTEX
  8
DEFAULT
  5
A60
 10
0.428021
 20
3.994342
 30
0.0
  0
VERTEX
  8
DEFAULT
  5
A61
 10
0.430891
 20
3.988369
 30
0.0
  0
VERTEX
  8
DEFAULT
  5
A62
 10
0.433239
 20
3.982064
 30
0.0
  0
VERTEX
  8
DEFAULT
  5
A63
 10
0.436369
 20
3.968459
 30
0.0
  0
VERTEX
  8
DEFAULT
  5
A64
 10
0.437413
 20
3.953526
 30
0.0
  0
VERTEX
  8
DEFAULT
  5
A65
 10
0.436833
 20
3.94237
 30
0.0
  0
VERTEX
  8
DEFAULT
  5
A66
 10
0.435093
 20
3.931908
 30
0.0
  0
VERTEX
  8
DEFAULT
  5
A67
 10
0.432194
 20
3.92214
 30
0.0
  0
VERTEX
  8
DEFAULT
  5
A68
 10
0.428135
 20
3.913066
 30
0.0
  0
VERTEX
  8
DEFAULT
  5
A69
 10
0.422983
 20
3.90473
 30
0.0
  0
VERTEX
  8
DEFAULT
  5
A6A
 10
0.416806
 20
3.897174
 30
0.0
  0
VERTEX
  8
DEFAULT
  5
A6B
 10
0.409603
 20
3.890399
 30
0.0
  0
VERTEX
  8
DEFAULT
  5
A6C
 10
0.401376
 20
3.884404
 30
0.0
  0
VERTEX
  8
DEFAULT
  5
A6D
 10
0.358794
 20
3.86676
 30
0.0
  0
VERTEX
  8
DEFAULT
  5
A6E
 10
0.291113
 20
3.860326
 30
0.0
  0
VERTEX
  8
DEFAULT
  5
A6F
 10
0.245554
 20
3.862909
 30
0.0
  0
VERTEX
  8
DEFAULT
  5
A70
 10
0.2264
 20
3.866139
 30
0.0
  0
VERTEX
  8
DEFAULT
  5
A71
 10
0.209663
 20
3.87066
 30
0.0
  0
VERTEX
  8
DEFAULT
  5
A72
 10
0.195026
 20
3.876467
 30
0.0
  0
VERTEX
  8
DEFAULT
  5
A73
 10
0.182172
 20
3.883553
 30
0.0
  0
VERTEX
  8
DEFAULT
  5
A74
 10
0.1711
 20
3.891918
 30
0.0
  0
VERTEX
  8
DEFAULT
  5
A75
 10
0.16181
 20
3.901563
 30
0.0
  0
VERTEX
  8
DEFAULT
  5
A76
 10
0.157873
 20
3.906875
 30
0.0
  0
VERTEX
  8
DEFAULT
  5
A77
 10
0.154461
 20
3.912524
 30
0.0
  0
VERTEX
  8
DEFAULT
  5
A78
 10
0.151574
 20
3.918512
 30
0.0
  0
VERTEX
  8
DEFAULT
  5
A79
 10
0.149212
 20
3.924838
 30
0.0
  0
VERTEX
  8
DEFAULT
  5
A7A
 10
0.146063
 20
3.938505
 30
0.0
  0
VERTEX
  8
DEFAULT
  5
A7B
 10
0.145013
 20
3.953526
 30
0.0
  0
VERTEX
  8
DEFAULT
  5
A7C
 10
0.145474
 20
3.963583
 30
0.0
  0
VERTEX
  8
DEFAULT
  5
A7D
 10
0.146856
 20
3.973085
 30
0.0
  0
VERTEX
  8
DEFAULT
  5
A7E
 10
0.14916
 20
3.982033
 30
0.0
  0
VERTEX
  8
DEFAULT
  5
A7F
 10
0.152385
 20
3.990426
 30
0.0
  0
VERTEX
  8
DEFAULT
  5
A80
 10
0.156532
 20
3.998264
 30
0.0
  0
VERTEX
  8
DEFAULT
  5
A81
 10
0.1616
 20
4.005548
 30
0.0
  0
VERTEX
  8
DEFAULT
  5
A82
 10
0.167589
 20
4.012276
 30
0.0
  0
VERTEX
  8
DEFAULT
  5
A83
 10
0.174501
 20
4.018451
 30
0.0
  0
VERTEX
  8
DEFAULT
  5
A84
 10
0.184185
 20
4.025078
 30
0.0
  0
VERTEX
  8
DEFAULT
  5
A85
 10
0.195268
 20
4.030821
 30
0.0
  0
VERTEX
  8
DEFAULT
  5
A86
 10
0.207748
 20
4.035681
 30
0.0
  0
VERTEX
  8
DEFAULT
  5
A87
 10
0.221626
 20
4.039657
 30
0.0
  0
VERTEX
  8
DEFAULT
  5
A88
 10
0.253574
 20
4.044959
 30
0.0
  0
VERTEX
  8
DEFAULT
  5
A89
 10
0.291113
 20
4.046726
 30
0.0
  0
SEQEND
  8
DEFAULT
  5
A8A
  0
POLYLINE
  8
DEFAULT
  5
A8B
 66
     1
 10
0.0
 20
0.0
 30
0.0
210
0.0
220
0.0
230
1.0
  0
VERTEX
  8
DEFAULT
  5
A8C
 10
0.291013
 20
4.010726
 30
0.0
  0
VERTEX
  8
DEFAULT
  5
A8D
 10
0.232168
 20
4.006601
 30
0.0
  0
VERTEX
  8
DEFAULT
  5
A8E
 10
0.211645
 20
4.001446
 30
0.0
  0
VERTEX
  8
DEFAULT
  5
A8F
 10
0.203609
 20
3.998095
 30
0.0
  0
VERTEX
  8
DEFAULT
  5
A90
 10
0.197057
 20
3.994229
 30
0.0
  0
VERTEX
  8
DEFAULT
  5
A91
 10
0.191609
 20
3.989984
 30
0.0
  0
VERTEX
  8
DEFAULT
  5
A92
 10
0.186888
 20
3.985499
 30
0.0
  0
VERTEX
  8
DEFAULT
  5
A93
 10
0.182893
 20
3.980772
 30
0.0
  0
VERTEX
  8
DEFAULT
  5
A94
 10
0.179624
 20
3.975805
 30
0.0
  0
VERTEX
  8
DEFAULT
  5
A95
 10
0.177082
 20
3.970596
 30
0.0
  0
VERTEX
  8
DEFAULT
  5
A96
 10
0.175266
 20
3.965147
 30
0.0
  0
VERTEX
  8
DEFAULT
  5
A97
 10
0.174176
 20
3.959457
 30
0.0
  0
VERTEX
  8
DEFAULT
  5
A98
 10
0.173813
 20
3.953526
 30
0.0
  0
VERTEX
  8
DEFAULT
  5
A99
 10
0.174178
 20
3.947595
 30
0.0
  0
VERTEX
  8
DEFAULT
  5
A9A
 10
0.175272
 20
3.941904
 30
0.0
  0
VERTEX
  8
DEFAULT
  5
A9B
 10
0.177095
 20
3.936455
 30
0.0
  0
VERTEX
  8
DEFAULT
  5
A9C
 10
0.179648
 20
3.931247
 30
0.0
  0
VERTEX
  8
DEFAULT
  5
A9D
 10
0.18293
 20
3.926279
 30
0.0
  0
VERTEX
  8
DEFAULT
  5
A9E
 10
0.186942
 20
3.921553
 30
0.0
  0
VERTEX
  8
DEFAULT
  5
A9F
 10
0.191683
 20
3.917067
 30
0.0
  0
VERTEX
  8
DEFAULT
  5
AA0
 10
0.197154
 20
3.912823
 30
0.0
  0
VERTEX
  8
DEFAULT
  5
AA1
 10
0.203726
 20
3.908956
 30
0.0
  0
VERTEX
  8
DEFAULT
  5
AA2
 10
0.211773
 20
3.905605
 30
0.0
  0
VERTEX
  8
DEFAULT
  5
AA3
 10
0.232289
 20
3.90045
 30
0.0
  0
VERTEX
  8
DEFAULT
  5
AA4
 10
0.291013
 20
3.896326
 30
0.0
  0
VERTEX
  8
DEFAULT
  5
AA5
 10
0.349858
 20
3.900437
 30
0.0
  0
VERTEX
  8
DEFAULT
  5
AA6
 10
0.370381
 20
3.905577
 30
0.0
  0
VERTEX
  8
DEFAULT
  5
AA7
 10
0.378417
 20
3.908918
 30
0.0
  0
VERTEX
  8
DEFAULT
  5
AA8
 10
0.384969
 20
3.912773
 30
0.0
  0
VERTEX
  8
DEFAULT
  5
AA9
 10
0.390417
 20
3.917013
 30
0.0
  0
VERTEX
  8
DEFAULT
  5
AAA
 10
0.395138
 20
3.921511
 30
0.0
  0
VERTEX
  8
DEFAULT
  5
AAB
 10
0.399133
 20
3.926267
 30
0.0
  0
VERTEX
  8
DEFAULT
  5
AAC
 10
0.402402
 20
3.931281
 30
0.0
  0
VERTEX
  8
DEFAULT
  5
AAD
 10
0.404944
 20
3.936553
 30
0.0
  0
VERTEX
  8
DEFAULT
  5
AAE
 10
0.40676
 20
3.942082
 30
0.0
  0
VERTEX
  8
DEFAULT
  5
AAF
 10
0.40785
 20
3.947869
 30
0.0
  0
VERTEX
  8
DEFAULT
  5
AB0
 10
0.408213
 20
3.953913
 30
0.0
  0
VERTEX
  8
DEFAULT
  5
AB1
 10
0.407893
 20
3.959815
 30
0.0
  0
VERTEX
  8
DEFAULT
  5
AB2
 10
0.406931
 20
3.965415
 30
0.0
  0
VERTEX
  8
DEFAULT
  5
AB3
 10
0.405328
 20
3.970713
 30
0.0
  0
VERTEX
  8
DEFAULT
  5
AB4
 10
0.403085
 20
3.975709
 30
0.0
  0
VERTEX
  8
DEFAULT
  5
AB5
 10
0.4002
 20
3.980402
 30
0.0
  0
VERTEX
  8
DEFAULT
  5
AB6
 10
0.396675
 20
3.984793
 30
0.0
  0
VERTEX
  8
DEFAULT
  5
AB7
 10
0.392508
 20
3.988882
 30
0.0
  0
VERTEX
  8
DEFAULT
  5
AB8
 10
0.387701
 20
3.992669
 30
0.0
  0
VERTEX
  8
DEFAULT
  5
AB9
 10
0.380464
 20
3.996901
 30
0.0
  0
VERTEX
  8
DEFAULT
  5
ABA
 10
0.371842
 20
4.000569
 30
0.0
  0
VERTEX
  8
DEFAULT
  5
ABB
 10
0.350441
 20
4.006212
 30
0.0
  0
VERTEX
  8
DEFAULT
  5
ABC
 10
0.323498
 20
4.009597
 30
0.0
  0
VERTEX
  8
DEFAULT
  5
ABD
 10
0.291013
 20
4.010726
 30
0.0
  0
SEQEND
  8
DEFAULT
  5
ABE
  0
POLYLINE
  8
DEFAULT
  5
ABF
 66
     1
 10
0.0
 20
0.0
 30
0.0
210
0.0
220
0.0
230
1.0
  0
VERTEX
  8
DEFAULT
  5
AC0
 10
0.366213
 20
3.641526
 30
0.0
  0
VERTEX
  8
DEFAULT
  5
AC1
 10
0.363413
 20
3.676326
 30
0.0
  0
VERTEX
  8
DEFAULT
  5
AC2
 10
0.393544
 20
3.689694
 30
0.0
  0
VERTEX
  8
DEFAULT
  5
AC3
 10
0.397076
 20
3.693386
 30
0.0
  0
VERTEX
  8
DEFAULT
  5
AC4
 10
0.400137
 20
3.697287
 30
0.0
  0
VERTEX
  8
DEFAULT
  5
AC5
 10
0.402727
 20
3.701396
 30
0.0
  0
VERTEX
  8
DEFAULT
  5
AC6
 10
0.404846
 20
3.705715
 30
0.0
  0
VERTEX
  8
DEFAULT
  5
AC7
 10
0.406494
 20
3.710242
 30
0.0
  0
VERTEX
  8
DEFAULT
  5
AC8
 10
0.407671
 20
3.714978
 30
0.0
  0
VERTEX
  8
DEFAULT
  5
AC9
 10
0.408378
 20
3.719922
 30
0.0
  0
VERTEX
  8
DEFAULT
  5
ACA
 10
0.408613
 20
3.725076
 30
0.0
  0
VERTEX
  8
DEFAULT
  5
ACB
 10
0.408027
 20
3.733283
 30
0.0
  0
VERTEX
  8
DEFAULT
  5
ACC
 10
0.406271
 20
3.740999
 30
0.0
  0
VERTEX
  8
DEFAULT
  5
ACD
 10
0.403343
 20
3.748224
 30
0.0
  0
VERTEX
  8
DEFAULT
  5
ACE
 10
0.399244
 20
3.754957
 30
0.0
  0
VERTEX
  8
DEFAULT
  5
ACF
 10
0.392499
 20
3.762783
 30
0.0
  0
VERTEX
  8
DEFAULT
  5
AD0
 10
0.384363
 20
3.769749
 30
0.0
  0
VERTEX
  8
DEFAULT
  5
AD1
 10
0.374836
 20
3.775855
 30
0.0
  0
VERTEX
  8
DEFAULT
  5
AD2
 10
0.363919
 20
3.781101
 30
0.0
  0
VERTEX
  8
DEFAULT
  5
AD3
 10
0.351073
 20
3.785339
 30
0.0
  0
VERTEX
  8
DEFAULT
  5
AD4
 10
0.335758
 20
3.788423
 30
0.0
  0
VERTEX
  8
DEFAULT
  5
AD5
 10
0.297726
 20
3.791126
 30
0.0
  0
VERTEX
  8
DEFAULT
  5
AD6
 10
0.306772
 20
3.784411
 30
0.0
  0
VERTEX
  8
DEFAULT
  5
AD7
 10
0.314572
 20
3.776987
 30
0.0
  0
VERTEX
  8
DEFAULT
  5
AD8
 10
0.321128
 20
3.768854
 30
0.0
  0
VERTEX
  8
DEFAULT
  5
AD9
 10
0.326438
 20
3.76001
 30
0.0
  0
VERTEX
  8
DEFAULT
  5
ADA
 10
0.335813
 20
3.721457
 30
0.0
  0
VERTEX
  8
DEFAULT
  5
ADB
 10
0.335408
 20
3.712816
 30
0.0
  0
VERTEX
  8
DEFAULT
  5
ADC
 10
0.334194
 20
3.704501
 30
0.0
  0
VERTEX
  8
DEFAULT
  5
ADD
 10
0.33217
 20
3.696514
 30
0.0
  0
VERTEX
  8
DEFAULT
  5
ADE
 10
0.329337
 20
3.688854
 30
0.0
  0
VERTEX
  8
DEFAULT
  5
ADF
 10
0.325695
 20
3.68152
 30
0.0
  0
VERTEX
  8
DEFAULT
  5
AE0
 10
0.321243
 20
3.674514
 30
0.0
  0
VERTEX
  8
DEFAULT
  5
AE1
 10
0.315981
 20
3.667834
 30
0.0
  0
VERTEX
  8
DEFAULT
  5
AE2
 10
0.30991
 20
3.661482
 30
0.0
  0
VERTEX
  8
DEFAULT
  5
AE3
 10
0.303197
 20
3.65568
 30
0.0
  0
VERTEX
  8
DEFAULT
  5
AE4
 10
0.296012
 20
3.650651
 30
0.0
  0
VERTEX
  8
DEFAULT
  5
AE5
 10
0.288353
 20
3.646396
 30
0.0
  0
VERTEX
  8
DEFAULT
  5
AE6
 10
0.28022
 20
3.642915
 30
0.0
  0
VERTEX
  8
DEFAULT
  5
AE7
 10
0.271614
 20
3.640207
 30
0.0
  0
VERTEX
  8
DEFAULT
  5
AE8
 10
0.262535
 20
3.638273
 30
0.0
  0
VERTEX
  8
DEFAULT
  5
AE9
 10
0.242957
 20
3.636726
 30
0.0
  0
VERTEX
  8
DEFAULT
  5
AEA
 10
0.229705
 20
3.637452
 30
0.0
  0
VERTEX
  8
DEFAULT
  5
AEB
 10
0.216929
 20
3.639633
 30
0.0
  0
VERTEX
  8
DEFAULT
  5
AEC
 10
0.204631
 20
3.643267
 30
0.0
  0
VERTEX
  8
DEFAULT
  5
AED
 10
0.19281
 20
3.648354
 30
0.0
  0
VERTEX
  8
DEFAULT
  5
AEE
 10
0.181905
 20
3.654712
 30
0.0
  0
VERTEX
  8
DEFAULT
  5
AEF
 10
0.172357
 20
3.662157
 30
0.0
  0
VERTEX
  8
DEFAULT
  5
AF0
 10
0.164165
 20
3.67069
 30
0.0
  0
VERTEX
  8
DEFAULT
  5
AF1
 10
0.157329
 20
3.68031
 30
0.0
  0
VERTEX
  8
DEFAULT
  5
AF2
 10
0.151941
 20
3.690816
 30
0.0
  0
VERTEX
  8
DEFAULT
  5
AF3
 10
0.148092
 20
3.702006
 30
0.0
  0
VERTEX
  8
DEFAULT
  5
AF4
 10
0.145783
 20
3.71388
 30
0.0
  0
VERTEX
  8
DEFAULT
  5
AF5
 10
0.145013
 20
3.726438
 30
0.0
  0
VERTEX
  8
DEFAULT
  5
AF6
 10
0.145518
 20
3.73718
 30
0.0
  0
VERTEX
  8
DEFAULT
  5
AF7
 10
0.147033
 20
3.747415
 30
0.0
  0
VERTEX
  8
DEFAULT
  5
AF8
 10
0.149559
 20
3.757142
 30
0.0
  0
VERTEX
  8
DEFAULT
  5
AF9
 10
0.153094
 20
3.766362
 30
0.0
  0
VERTEX
  8
DEFAULT
  5
AFA
 10
0.15764
 20
3.775076
 30
0.0
  0
VERTEX
  8
DEFAULT
  5
AFB
 10
0.163196
 20
3.783282
 30
0.0
  0
VERTEX
  8
DEFAULT
  5
AFC
 10
0.169762
 20
3.790981
 30
0.0
  0
VERTEX
  8
DEFAULT
  5
AFD
 10
0.177338
 20
3.798173
 30
0.0
  0
VERTEX
  8
DEFAULT
  5
AFE
 10
0.186074
 20
3.804677
 30
0.0
  0
VERTEX
  8
DEFAULT
  5
AFF
 10
0.196119
 20
3.810315
 30
0.0
  0
VERTEX
  8
DEFAULT
  5
B00
 10
0.207474
 20
3.815085
 30
0.0
  0
VERTEX
  8
DEFAULT
  5
B01
 10
0.220138
 20
3.818987
 30
0.0
  0
VERTEX
  8
DEFAULT
  5
B02
 10
0.249394
 20
3.824191
 30
0.0
  0
VERTEX
  8
DEFAULT
  5
B03
 10
0.283888
 20
3.825926
 30
0.0
  0
VERTEX
  8
DEFAULT
  5
B04
 10
0.322562
 20
3.824005
 30
0.0
  0
VERTEX
  8
DEFAULT
  5
B05
 10
0.355572
 20
3.818243
 30
0.0
  0
VERTEX
  8
DEFAULT
  5
B06
 10
0.369953
 20
3.813921
 30
0.0
  0
VERTEX
  8
DEFAULT
  5
B07
 10
0.382918
 20
3.808639
 30
0.0
  0
VERTEX
  8
DEFAULT
  5
B08
 10
0.394468
 20
3.802397
 30
0.0
  0
VERTEX
  8
DEFAULT
  5
B09
 10
0.404601
 20
3.795194
 30
0.0
  0
VERTEX
  8
DEFAULT
  5
B0A
 10
0.412291
 20
3.788199
 30
0.0
  0
VERTEX
  8
DEFAULT
  5
B0B
 10
0.418956
 20
3.780623
 30
0.0
  0
VERTEX
  8
DEFAULT
  5
B0C
 10
0.424596
 20
3.772465
 30
0.0
  0
VERTEX
  8
DEFAULT
  5
B0D
 10
0.42921
 20
3.763726
 30
0.0
  0
VERTEX
  8
DEFAULT
  5
B0E
 10
0.432799
 20
3.754405
 30
0.0
  0
VERTEX
  8
DEFAULT
  5
B0F
 10
0.435362
 20
3.744504
 30
0.0
  0
VERTEX
  8
DEFAULT
  5
B10
 10
0.4369
 20
3.734021
 30
0.0
  0
VERTEX
  8
DEFAULT
  5
B11
 10
0.437413
 20
3.722957
 30
0.0
  0
VERTEX
  8
DEFAULT
  5
B12
 10
0.43623
 20
3.70679
 30
0.0
  0
VERTEX
  8
DEFAULT
  5
B13
 10
0.434752
 20
3.69928
 30
0.0
  0
VERTEX
  8
DEFAULT
  5
B14
 10
0.432683
 20
3.692152
 30
0.0
  0
VERTEX
  8
DEFAULT
  5
B15
 10
0.430022
 20
3.685407
 30
0.0
  0
VERTEX
  8
DEFAULT
  5
B16
 10
0.426769
 20
3.679043
 30
0.0
  0
VERTEX
  8
DEFAULT
  5
B17
 10
0.422926
 20
3.673062
 30
0.0
  0
VERTEX
  8
DEFAULT
  5
B18
 10
0.418491
 20
3.667463
 30
0.0
  0
VERTEX
  8
DEFAULT
  5
B19
 10
0.413535
 20
3.662326
 30
0.0
  0
VERTEX
  8
DEFAULT
  5
B1A
 10
0.408128
 20
3.65773
 30
0.0
  0
VERTEX
  8
DEFAULT
  5
B1B
 10
0.40227
 20
3.653676
 30
0.0
  0
VERTEX
  8
DEFAULT
  5
B1C
 10
0.395961
 20
3.650163
 30
0.0
  0
VERTEX
  8
DEFAULT
  5
B1D
 10
0.3892
 20
3.647192
 30
0.0
  0
VERTEX
  8
DEFAULT
  5
B1E
 10
0.381989
 20
3.644762
 30
0.0
  0
VERTEX
  8
DEFAULT
  5
B1F
 10
0.366213
 20
3.641526
 30
0.0
  0
SEQEND
  8
DEFAULT
  5
B20
  0
POLYLINE
  8
DEFAULT
  5
B21
 66
     1
 10
0.0
 20
0.0
 30
0.0
210
0.0
220
0.0
230
1.0
  0
VERTEX
  8
DEFAULT
  5
B22
 10
0.242632
 20
3.785526
 30
0.0
  0
VERTEX
  8
DEFAULT
  5
B23
 10
0.207832
 20
3.777804
 30
0.0
  0
VERTEX
  8
DEFAULT
  5
B24
 10
0.182513
 20
3.756301
 30
0.0
  0
VERTEX
  8
DEFAULT
  5
B25
 10
0.173813
 20
3.727076
 30
0.0
  0
VERTEX
  8
DEFAULT
  5
B26
 10
0.174094
 20
3.721556
 30
0.0
  0
VERTEX
  8
DEFAULT
  5
B27
 10
0.174937
 20
3.716242
 30
0.0
  0
VERTEX
  8
DEFAULT
  5
B28
 10
0.176343
 20
3.711132
 30
0.0
  0
VERTEX
  8
DEFAULT
  5
B29
 10
0.17831
 20
3.706227
 30
0.0
  0
VERTEX
  8
DEFAULT
  5
B2A
 10
0.180839
 20
3.701527
 30
0.0
  0
VERTEX
  8
DEFAULT
  5
B2B
 10
0.183931
 20
3.697032
 30
0.0
  0
VERTEX
  8
DEFAULT
  5
B2C
 10
0.187585
 20
3.692742
 30
0.0
  0
VERTEX
  8
DEFAULT
  5
B2D
 10
0.191801
 20
3.688657
 30
0.0
  0
VERTEX
  8
DEFAULT
  5
B2E
 10
0.196499
 20
3.684923
 30
0.0
  0
VERTEX
  8
DEFAULT
  5
B2F
 10
0.201601
 20
3.681687
 30
0.0
  0
VERTEX
  8
DEFAULT
  5
B30
 10
0.207106
 20
3.678949
 30
0.0
  0
VERTEX
  8
DEFAULT
  5
B31
 10
0.213015
 20
3.676709
 30
0.0
  0
VERTEX
  8
DEFAULT
  5
B32
 10
0.226042
 20
3.673721
 30
0.0
  0
VERTEX
  8
DEFAULT
  5
B33
 10
0.240682
 20
3.672726
 30
0.0
  0
VERTEX
  8
DEFAULT
  5
B34
 10
0.254753
 20
3.673709
 30
0.0
  0
VERTEX
  8
DEFAULT
  5
B35
 10
0.261197
 20
3.674938
 30
0.0
  0
VERTEX
  8
DEFAULT
  5
B36
 10
0.267247
 20
3.676659
 30
0.0
  0
VERTEX
  8
DEFAULT
  5
B37
 10
0.272903
 20
3.678872
 30
0.0
  0
VERTEX
  8
DEFAULT
  5
B38
 10
0.278165
 20
3.681576
 30
0.0
  0
VERTEX
  8
DEFAULT
  5
B39
 10
0.283033
 20
3.684772
 30
0.0
  0
VERTEX
  8
DEFAULT
  5
B3A
 10
0.287507
 20
3.68846
 30
0.0
  0
VERTEX
  8
DEFAULT
  5
B3B
 10
0.291516
 20
3.692527
 30
0.0
  0
VERTEX
  8
DEFAULT
  5
B3C
 10
0.294991
 20
3.696859
 30
0.0
  0
VERTEX
  8
DEFAULT
  5
B3D
 10
0.297931
 20
3.701458
 30
0.0
  0
VERTEX
  8
DEFAULT
  5
B3E
 10
0.300336
 20
3.706323
 30
0.0
  0
VERTEX
  8
DEFAULT
  5
B3F
 10
0.302207
 20
3.711454
 30
0.0
  0
VERTEX
  8
DEFAULT
  5
B40
 10
0.303544
 20
3.716852
 30
0.0
  0
VERTEX
  8
DEFAULT
  5
B41
 10
0.304346
 20
3.722515
 30
0.0
  0
VERTEX
  8
DEFAULT
  5
B42
 10
0.304613
 20
3.728444
 30
0.0
  0
VERTEX
  8
DEFAULT
  5
B43
 10
0.304346
 20
3.734294
 30
0.0
  0
VERTEX
  8
DEFAULT
  5
B44
 10
0.303544
 20
3.739917
 30
0.0
  0
VERTEX
  8
DEFAULT
  5
B45
 10
0.302207
 20
3.745315
 30
0.0
  0
VERTEX
  8
DEFAULT
  5
B46
 10
0.300336
 20
3.750486
 30
0.0
  0
VERTEX
  8
DEFAULT
  5
B47
 10
0.297931
 20
3.755431
 30
0.0
  0
VERTEX
  8
DEFAULT
  5
B48
 10
0.294991
 20
3.76015
 30
0.0
  0
VERTEX
  8
DEFAULT
  5
B49
 10
0.291516
 20
3.764643
 30
0.0
  0
VERTEX
  8
DEFAULT
  5
B4A
 10
0.287507
 20
3.76891
 30
0.0
  0
VERTEX
  8
DEFAULT
  5
B4B
 10
0.283064
 20
3.772804
 30
0.0
  0
VERTEX
  8
DEFAULT
  5
B4C
 10
0.278287
 20
3.776179
 30
0.0
  0
VERTEX
  8
DEFAULT
  5
B4D
 10
0.273178
 20
3.779035
 30
0.0
  0
VERTEX
  8
DEFAULT
  5
B4E
 10
0.267735
 20
3.781372
 30
0.0
  0
VERTEX
  8
DEFAULT
  5
B4F
 10
0.261959
 20
3.783189
 30
0.0
  0
VERTEX
  8
DEFAULT
  5
B50
 10
0.25585
 20
3.784487
 30
0.0
  0
VERTEX
  8
DEFAULT
  5
B51
 10
0.242632
 20
3.785526
 30
0.0
  0
SEQEND
  8
DEFAULT
  5
B52
  0
POLYLINE
  8
DEFAULT
  5
B53
 66
     1
 10
0.0
 20
0.0
 30
0.0
210
0.0
220
0.0
230
1.0
  0
VERTEX
  8
DEFAULT
  5
B54
 10
0.225813
 20
2.705926
 30
0.0
  0
VERTEX
  8
DEFAULT
  5
B55
 10
0.221013
 20
2.671526
 30
0.0
  0
VERTEX
  8
DEFAULT
  5
B56
 10
0.204239
 20
2.675457
 30
0.0
  0
VERTEX
  8
DEFAULT
  5
B57
 10
0.189391
 20
2.681594
 30
0.0
  0
VERTEX
  8
DEFAULT
  5
B58
 10
0.18269
 20
2.685491
 30
0.0
  0
VERTEX
  8
DEFAULT
  5
B59
 10
0.17647
 20
2.689938
 30
0.0
  0
VERTEX
  8
DEFAULT
  5
B5A
 10
0.170732
 20
2.694937
 30
0.0
  0
VERTEX
  8
DEFAULT
  5
B5B
 10
0.165476
 20
2.700488
 30
0.0
  0
VERTEX
  8
DEFAULT
  5
B5C
 10
0.160773
 20
2.706481
 30
0.0
  0
VERTEX
  8
DEFAULT
  5
B5D
 10
0.156698
 20
2.712805
 30
0.0
  0
VERTEX
  8
DEFAULT
  5
B5E
 10
0.15325
 20
2.719462
 30
0.0
  0
VERTEX
  8
DEFAULT
  5
B5F
 10
0.150429
 20
2.726451
 30
0.0
  0
VERTEX
  8
DEFAULT
  5
B60
 10
0.148234
 20
2.733771
 30
0.0
  0
VERTEX
  8
DEFAULT
  5
B61
 10
0.146667
 20
2.741424
 30
0.0
  0
VERTEX
  8
DEFAULT
  5
B62
 10
0.145413
 20
2.757726
 30
0.0
  0
VERTEX
  8
DEFAULT
  5
B63
 10
0.145847
 20
2.768095
 30
0.0
  0
VERTEX
  8
DEFAULT
  5
B64
 10
0.147149
 20
2.777943
 30
0.0
  0
VERTEX
  8
DEFAULT
  5
B65
 10
0.14932
 20
2.787269
 30
0.0
  0
VERTEX
  8
DEFAULT
  5
B66
 10
0.152358
 20
2.796075
 30
0.0
  0
VERTEX
  8
DEFAULT
  5
B67
 10
0.156265
 20
2.804359
 30
0.0
  0
VERTEX
  8
DEFAULT
  5
B68
 10
0.16104
 20
2.812122
 30
0.0
  0
VERTEX
  8
DEFAULT
  5
B69
 10
0.166683
 20
2.819364
 30
0.0
  0
VERTEX
  8
DEFAULT
  5
B6A
 10
0.173194
 20
2.826085
 30
0.0
  0
VERTEX
  8
DEFAULT
  5
B6B
 10
0.180516
 20
2.832141
 30
0.0
  0
VERTEX
  8
DEFAULT
  5
B6C
 10
0.18859
 20
2.83739
 30
0.0
  0
VERTEX
  8
DEFAULT
  5
B6D
 10
0.197416
 20
2.841832
 30
0.0
  0
VERTEX
  8
DEFAULT
  5
B6E
 10
0.206994
 20
2.845466
 30
0.0
  0
VERTEX
  8
DEFAULT
  5
B6F
 10
0.228408
 20
2.850311
 30
0.0
  0
VERTEX
  8
DEFAULT
  5
B70
 10
0.252832
 20
2.851926
 30
0.0
  0
VERTEX
  8
DEFAULT
  5
B71
 10
0.269074
 20
2.85123
 30
0.0
  0
VERTEX
  8
DEFAULT
  5
B72
 10
0.284268
 20
2.849144
 30
0.0
  0
VERTEX
  8
DEFAULT
  5
B73
 10
0.298414
 20
2.845668
 30
0.0
  0
VERTEX
  8
DEFAULT
  5
B74
 10
0.311513
 20
2.840801
 30
0.0
  0
VERTEX
  8
DEFAULT
  5
B75
 10
0.323302
 20
2.834513
 30
0.0
  0
VERTEX
  8
DEFAULT
  5
B76
 10
0.333519
 20
2.826773
 30
0.0
  0
VERTEX
  8
DEFAULT
  5
B77
 10
0.342165
 20
2.817583
 30
0.0
  0
VERTEX
  8
DEFAULT
  5
B78
 10
0.349238
 20
2.806941
 30
0.0
  0
VERTEX
  8
DEFAULT
  5
B79
 10
0.35474
 20
2.795324
 30
0.0
  0
VERTEX
  8
DEFAULT
  5
B7A
 10
0.358669
 20
2.783206
 30
0.0
  0
VERTEX
  8
DEFAULT
  5
B7B
 10
0.361027
 20
2.770588
 30
0.0
  0
VERTEX
  8
DEFAULT
  5
B7C
 10
0.361813
 20
2.757469
 30
0.0
  0
VERTEX
  8
DEFAULT
  5
B7D
 10
0.360745
 20
2.741357
 30
0.0
  0
VERTEX
  8
DEFAULT
  5
B7E
 10
0.357542
 20
2.726781
 30
0.0
  0
VERTEX
  8
DEFAULT
  5
B7F
 10
0.355139
 20
2.72007
 30
0.0
  0
VERTEX
  8
DEFAULT
  5
B80
 10
0.352203
 20
2.713743
 30
0.0
  0
VERTEX
  8
DEFAULT
  5
B81
 10
0.348733
 20
2.7078
 30
0.0
  0
VERTEX
  8
DEFAULT
  5
B82
 10
0.344729
 20
2.702241
 30
0.0
  0
VERTEX
  8
DEFAULT
  5
B83
 10
0.340233
 20
2.697116
 30
0.0
  0
VERTEX
  8
DEFAULT
  5
B84
 10
0.33529
 20
2.692472
 30
0.0
  0
VERTEX
  8
DEFAULT
  5
B85
 10
0.329898
 20
2.68831
 30
0.0
  0
VERTEX
  8
DEFAULT
  5
B86
 10
0.324058
 20
2.68463
 30
0.0
  0
VERTEX
  8
DEFAULT
  5
B87
 10
0.311032
 20
2.678714
 30
0.0
  0
VERTEX
  8
DEFAULT
  5
B88
 10
0.296213
 20
2.674726
 30
0.0
  0
VERTEX
  8
DEFAULT
  5
B89
 10
0.291013
 20
2.708726
 30
0.0
  0
VERTEX
  8
DEFAULT
  5
B8A
 10
0.300816
 20
2.71164
 30
0.0
  0
VERTEX
  8
DEFAULT
  5
B8B
 10
0.309326
 20
2.715497
 30
0.0
  0
VERTEX
  8
DEFAULT
  5
B8C
 10
0.316541
 20
2.720295
 30
0.0
  0
VERTEX
  8
DEFAULT
  5
B8D
 10
0.319664
 20
2.723047
 30
0.0
  0
VERTEX
  8
DEFAULT
  5
B8E
 10
0.322463
 20
2.726035
 30
0.0
  0
VERTEX
  8
DEFAULT
  5
B8F
 10
0.324936
 20
2.729222
 30
0.0
  0
VERTEX
  8
DEFAULT
  5
B90
 10
0.327079
 20
2.73257
 30
0.0
  0
VERTEX
  8
DEFAULT
  5
B91
 10
0.328892
 20
2.736081
 30
0.0
  0
VERTEX
  8
DEFAULT
  5
B92
 10
0.330376
 20
2.739753
 30
0.0
  0
VERTEX
  8
DEFAULT
  5
B93
 10
0.331529
 20
2.743588
 30
0.0
  0
VERTEX
  8
DEFAULT
  5
B94
 10
0.332354
 20
2.747584
 30
0.0
  0
VERTEX
  8
DEFAULT
  5
B95
 10
0.333013
 20
2.756063
 30
0.0
  0
VERTEX
  8
DEFAULT
  5
B96
 10
0.332716
 20
2.762559
 30
0.0
  0
VERTEX
  8
DEFAULT
  5
B97
 10
0.331824
 20
2.768743
 30
0.0
  0
VERTEX
  8
DEFAULT
  5
B98
 10
0.330338
 20
2.774615
 30
0.0
  0
VERTEX
  8
DEFAULT
  5
B99
 10
0.328258
 20
2.780175
 30
0.0
  0
VERTEX
  8
DEFAULT
  5
B9A
 10
0.325583
 20
2.785423
 30
0.0
  0
VERTEX
  8
DEFAULT
  5
B9B
 10
0.322313
 20
2.79036
 30
0.0
  0
VERTEX
  8
DEFAULT
  5
B9C
 10
0.318449
 20
2.794985
 30
0.0
  0
VERTEX
  8
DEFAULT
  5
B9D
 10
0.313991
 20
2.799298
 30
0.0
  0
VERTEX
  8
DEFAULT
  5
B9E
 10
0.30889
 20
2.803195
 30
0.0
  0
VERTEX
  8
DEFAULT
  5
B9F
 10
0.303096
 20
2.806572
 30
0.0
  0
VERTEX
  8
DEFAULT
  5
BA0
 10
0.296611
 20
2.80943
 30
0.0
  0
VERTEX
  8
DEFAULT
  5
BA1
 10
0.289434
 20
2.811769
 30
0.0
  0
VERTEX
  8
DEFAULT
  5
BA2
 10
0.273004
 20
2.814886
 30
0.0
  0
VERTEX
  8
DEFAULT
  5
BA3
 10
0.253807
 20
2.815926
 30
0.0
  0
VERTEX
  8
DEFAULT
  5
BA4
 10
0.234359
 20
2.814924
 30
0.0
  0
VERTEX
  8
DEFAULT
  5
BA5
 10
0.217764
 20
2.81192
 30
0.0
  0
VERTEX
  8
DEFAULT
  5
BA6
 10
0.210537
 20
2.809667
 30
0.0
  0
VERTEX
  8
DEFAULT
  5
BA7
 10
0.204023
 20
2.806913
 30
0.0
  0
VERTEX
  8
DEFAULT
  5
BA8
 10
0.198222
 20
2.803659
 30
0.0
  0
VERTEX
  8
DEFAULT
  5
BA9
 10
0.193135
 20
2.799904
 30
0.0
  0
VERTEX
  8
DEFAULT
  5
BAA
 10
0.1887
 20
2.795746
 30
0.0
  0
VERTEX
  8
DEFAULT
  5
BAB
 10
0.184857
 20
2.791283
 30
0.0
  0
VERTEX
  8
DEFAULT
  5
BAC
 10
0.181604
 20
2.786514
 30
0.0
  0
VERTEX
  8
DEFAULT
  5
BAD
 10
0.178943
 20
2.781441
 30
0.0
  0
VERTEX
  8
DEFAULT
  5
BAE
 10
0.176874
 20
2.776062
 30
0.0
  0
VERTEX
  8
DEFAULT
  5
BAF
 10
0.175396
 20
2.770378
 30
0.0
  0
VERTEX
  8
DEFAULT
  5
BB0
 10
0.174509
 20
2.764389
 30
0.0
  0
VERTEX
  8
DEFAULT
  5
BB1
 10
0.174213
 20
2.758094
 30
0.0
  0
VERTEX
  8
DEFAULT
  5
BB2
 10
0.175004
 20
2.748166
 30
0.0
  0
VERTEX
  8
DEFAULT
  5
BB3
 10
0.175993
 20
2.743522
 30
0.0
  0
VERTEX
  8
DEFAULT
  5
BB4
 10
0.177377
 20
2.739092
 30
0.0
  0
VERTEX
  8
DEFAULT
  5
BB5
 10
0.179157
 20
2.734876
 30
0.0
  0
VERTEX
  8
DEFAULT
  5
BB6
 10
0.181332
 20
2.730874
 30
0.0
  0
VERTEX
  8
DEFAULT
  5
BB7
 10
0.183903
 20
2.727085
 30
0.0
  0
VERTEX
  8
DEFAULT
  5
BB8
 10
0.186869
 20
2.72351
 30
0.0
  0
VERTEX
  8
DEFAULT
  5
BB9
 10
0.190246
 20
2.720201
 30
0.0
  0
VERTEX
  8
DEFAULT
  5
BBA
 10
0.194049
 20
2.717209
 30
0.0
  0
VERTEX
  8
DEFAULT
  5
BBB
 10
0.198278
 20
2.714535
 30
0.0
  0
VERTEX
  8
DEFAULT
  5
BBC
 10
0.202933
 20
2.712178
 30
0.0
  0
VERTEX
  8
DEFAULT
  5
BBD
 10
0.213521
 20
2.708417
 30
0.0
  0
VERTEX
  8
DEFAULT
  5
BBE
 10
0.225813
 20
2.705926
 30
0.0
  0
SEQEND
  8
DEFAULT
  5
BBF
  0
POLYLINE
  8
DEFAULT
  5
BC0
 66
     1
 10
0.0
 20
0.0
 30
0.0
210
0.0
220
0.0
230
1.0
  0
VERTEX
  8
DEFAULT
  5
BC1
 10
0.211813
 20
2.655526
 30
0.0
  0
VERTEX
  8
DEFAULT
  5
BC2
 10
0.217413
 20
2.620726
 30
0.0
  0
VERTEX
  8
DEFAULT
  5
BC3
 10
0.207565
 20
2.618602
 30
0.0
  0
VERTEX
  8
DEFAULT
  5
BC4
 10
0.203099
 20
2.61705
 30
0.0
  0
VERTEX
  8
DEFAULT
  5
BC5
 10
0.198939
 20
2.61517
 30
0.0
  0
VERTEX
  8
DEFAULT
  5
BC6
 10
0.195084
 20
2.612963
 30
0.0
  0
VERTEX
  8
DEFAULT
  5
BC7
 10
0.191535
 20
2.610429
 30
0.0
  0
VERTEX
  8
DEFAULT
  5
BC8
 10
0.188292
 20
2.607568
 30
0.0
  0
VERTEX
  8
DEFAULT
  5
BC9
 10
0.185354
 20
2.604379
 30
0.0
  0
VERTEX
  8
DEFAULT
  5
BCA
 10
0.182743
 20
2.60086
 30
0.0
  0
VERTEX
  8
DEFAULT
  5
BCB
 10
0.18048
 20
2.597008
 30
0.0
  0
VERTEX
  8
DEFAULT
  5
BCC
 10
0.178565
 20
2.592822
 30
0.0
  0
VERTEX
  8
DEFAULT
  5
BCD
 10
0.176998
 20
2.588303
 30
0.0
  0
VERTEX
  8
DEFAULT
  5
BCE
 10
0.174909
 20
2.578265
 30
0.0
  0
VERTEX
  8
DEFAULT
  5
BCF
 10
0.174213
 20
2.566894
 30
0.0
  0
VERTEX
  8
DEFAULT
  5
BD0
 10
0.174829
 20
2.55554
 30
0.0
  0
VERTEX
  8
DEFAULT
  5
BD1
 10
0.176678
 20
2.545751
 30
0.0
  0
VERTEX
  8
DEFAULT
  5
BD2
 10
0.178064
 20
2.541444
 30
0.0
  0
VERTEX
  8
DEFAULT
  5
BD3
 10
0.179759
 20
2.537529
 30
0.0
  0
VERTEX
  8
DEFAULT
  5
BD4
 10
0.181762
 20
2.534005
 30
0.0
  0
VERTEX
  8
DEFAULT
  5
BD5
 10
0.184072
 20
2.530873
 30
0.0
  0
VERTEX
  8
DEFAULT
  5
BD6
 10
0.186591
 20
2.528119
 30
0.0
  0
VERTEX
  8
DEFAULT
  5
BD7
 10
0.189215
 20
2.525733
 30
0.0
  0
VERTEX
  8
DEFAULT
  5
BD8
 10
0.191946
 20
2.523714
 30
0.0
  0
VERTEX
  8
DEFAULT
  5
BD9
 10
0.194784
 20
2.522062
 30
0.0
  0
VERTEX
  8
DEFAULT
  5
BDA
 10
0.197728
 20
2.520778
 30
0.0
  0
VERTEX
  8
DEFAULT
  5
BDB
 10
0.200779
 20
2.51986
 30
0.0
  0
VERTEX
  8
DEFAULT
  5
BDC
 10
0.203937
 20
2.519309
 30
0.0
  0
VERTEX
  8
DEFAULT
  5
BDD
 10
0.207201
 20
2.519126
 30
0.0
  0
VERTEX
  8
DEFAULT
  5
BDE
 10
0.210099
 20
2.51929
 30
0.0
  0
VERTEX
  8
DEFAULT
  5
BDF
 10
0.212839
 20
2.519784
 30
0.0
  0
VERTEX
  8
DEFAULT
  5
BE0
 10
0.21542
 20
2.520608
 30
0.0
  0
VERTEX
  8
DEFAULT
  5
BE1
 10
0.217843
 20
2.52176
 30
0.0
  0
VERTEX
  8
DEFAULT
  5
BE2
 10
0.220106
 20
2.523242
 30
0.0
  0
VERTEX
  8
DEFAULT
  5
BE3
 10
0.222211
 20
2.525053
 30
0.0
  0
VERTEX
  8
DEFAULT
  5
BE4
 10
0.224157
 20
2.527193
 30
0.0
  0
VERTEX
  8
DEFAULT
  5
BE5
 10
0.225944
 20
2.529663
 30
0.0
  0
VERTEX
  8
DEFAULT
  5
BE6
 10
0.237851
 20
2.565657
 30
0.0
  0
VERTEX
  8
DEFAULT
  5
BE7
 10
0.25471
 20
2.619163
 30
0.0
  0
VERTEX
  8
DEFAULT
  5
BE8
 10
0.274397
 20
2.641813
 30
0.0
  0
VERTEX
  8
DEFAULT
  5
BE9
 10
0.302169
 20
2.649526
 30
0.0
  0
VERTEX
  8
DEFAULT
  5
BEA
 10
0.327801
 20
2.643185
 30
0.0
  0
VERTEX
  8
DEFAULT
  5
BEB
 10
0.347388
 20
2.625919
 30
0.0
  0
VERTEX
  8
DEFAULT
  5
BEC
 10
0.357622
 20
2.603585
 30
0.0
  0
VERTEX
  8
DEFAULT
  5
BED
 10
0.361813
 20
2.573251
 30
0.0
  0
VERTEX
  8
DEFAULT
  5
BEE
 10
0.354757
 20
2.530435
 30
0.0
  0
VERTEX
  8
DEFAULT
  5
BEF
 10
0.335651
 20
2.503223
 30
0.0
  0
VERTEX
  8
DEFAULT
  5
BF0
 10
0.303413
 20
2.491126
 30
0.0
  0
VERTEX
  8
DEFAULT
  5
BF1
 10
0.298613
 20
2.525526
 30
0.0
  0
VERTEX
  8
DEFAULT
  5
BF2
 10
0.306274
 20
2.527248
 30
0.0
  0
VERTEX
  8
DEFAULT
  5
BF3
 10
0.309771
 20
2.528525
 30
0.0
  0
VERTEX
  8
DEFAULT
  5
BF4
 10
0.313046
 20
2.530079
 30
0.0
  0
VERTEX
  8
DEFAULT
  5
BF5
 10
0.316098
 20
2.531909
 30
0.0
  0
VERTEX
  8
DEFAULT
  5
BF6
 10
0.318927
 20
2.534017
 30
0.0
  0
VERTEX
  8
DEFAULT
  5
BF7
 10
0.321535
 20
2.536402
 30
0.0
  0
VERTEX
  8
DEFAULT
  5
BF8
 10
0.323919
 20
2.539063
 30
0.0
  0
VERTEX
  8
DEFAULT
  5
BF9
 10
0.326051
 20
2.542008
 30
0.0
  0
VERTEX
  8
DEFAULT
  5
BFA
 10
0.327898
 20
2.545242
 30
0.0
  0
VERTEX
  8
DEFAULT
  5
BFB
 10
0.329461
 20
2.548765
 30
0.0
  0
VERTEX
  8
DEFAULT
  5
BFC
 10
0.33074
 20
2.552577
 30
0.0
  0
VERTEX
  8
DEFAULT
  5
BFD
 10
0.332445
 20
2.56107
 30
0.0
  0
VERTEX
  8
DEFAULT
  5
BFE
 10
0.333013
 20
2.570719
 30
0.0
  0
VERTEX
  8
DEFAULT
  5
BFF
 10
0.332513
 20
2.581933
 30
0.0
  0
VERTEX
  8
DEFAULT
  5
C00
 10
0.331012
 20
2.591418
 30
0.0
  0
VERTEX
  8
DEFAULT
  5
C01
 10
0.329887
 20
2.595512
 30
0.0
  0
VERTEX
  8
DEFAULT
  5
C02
 10
0.328511
 20
2.599174
 30
0.0
  0
VERTEX
  8
DEFAULT
  5
C03
 10
0.326886
 20
2.602403
 30
0.0
  0
VERTEX
  8
DEFAULT
  5
C04
 10
0.32501
 20
2.605201
 30
0.0
  0
VERTEX
  8
DEFAULT
  5
C05
 10
0.322966
 20
2.607621
 30
0.0
  0
VERTEX
  8
DEFAULT
  5
C06
 10
0.320837
 20
2.609718
 30
0.0
  0
VERTEX
  8
DEFAULT
  5
C07
 10
0.318623
 20
2.611492
 30
0.0
  0
VERTEX
  8
DEFAULT
  5
C08
 10
0.316323
 20
2.612944
 30
0.0
  0
VERTEX
  8
DEFAULT
  5
C09
 10
0.313938
 20
2.614074
 30
0.0
  0
VERTEX
  8
DEFAULT
  5
C0A
 10
0.311467
 20
2.61488
 30
0.0
  0
VERTEX
  8
DEFAULT
  5
C0B
 10
0.308911
 20
2.615364
 30
0.0
  0
VERTEX
  8
DEFAULT
  5
C0C
 10
0.306269
 20
2.615526
 30
0.0
  0
VERTEX
  8
DEFAULT
  5
C0D
 10
0.293969
 20
2.611238
 30
0.0
  0
VERTEX
  8
DEFAULT
  5
C0E
 10
0.284601
 20
2.597801
 30
0.0
  0
VERTEX
  8
DEFAULT
  5
C0F
 10
0.275619
 20
2.566826
 30
0.0
  0
VERTEX
  8
DEFAULT
  5
C10
 10
0.259341
 20
2.514807
 30
0.0
  0
VERTEX
  8
DEFAULT
  5
C11
 10
0.240922
 20
2.49156
 30
0.0
  0
VERTEX
  8
DEFAULT
  5
C12
 10
0.210907
 20
2.483126
 30
0.0
  0
VERTEX
  8
DEFAULT
  5
C13
 10
0.202263
 20
2.483767
 30
0.0
  0
VERTEX
  8
DEFAULT
  5
C14
 10
0.193875
 20
2.485691
 30
0.0
  0
VERTEX
  8
DEFAULT
  5
C15
 10
0.185743
 20
2.488898
 30
0.0
  0
VERTEX
  8
DEFAULT
  5
C16
 10
0.177866
 20
2.493388
 30
0.0
  0
VERTEX
  8
DEFAULT
  5
C17
 10
0.170556
 20
2.499087
 30
0.0
  0
VERTEX
  8
DEFAULT
  5
C18
 10
0.164124
 20
2.505923
 30
0.0
  0
VERTEX
  8
DEFAULT
  5
C19
 10
0.158569
 20
2.513894
 30
0.0
  0
VERTEX
  8
DEFAULT
  5
C1A
 10
0.153891
 20
2.523001
 30
0.0
  0
VERTEX
  8
DEFAULT
  5
C1B
 10
0.145413
 20
2.566782
 30
0.0
  0
VERTEX
  8
DEFAULT
  5
C1C
 10
0.14646
 20
2.58581
 30
0.0
  0
VERTEX
  8
DEFAULT
  5
C1D
 10
0.1496
 20
2.602431
 30
0.0
  0
VERTEX
  8
DEFAULT
  5
C1E
 10
0.151955
 20
2.609839
 30
0.0
  0
VERTEX
  8
DEFAULT
  5
C1F
 10
0.154833
 20
2.616646
 30
0.0
  0
VERTEX
  8
DEFAULT
  5
C20
 10
0.158235
 20
2.622851
 30
0.0
  0
VERTEX
  8
DEFAULT
  5
C21
 10
0.16216
 20
2.628454
 30
0.0
  0
VERTEX
  8
DEFAULT
  5
C22
 10
0.166599
 20
2.633516
 30
0.0
  0
VERTEX
  8
DEFAULT
  5
C23
 10
0.171543
 20
2.638099
 30
0.0
  0
VERTEX
  8
DEFAULT
  5
C24
 10
0.176992
 20
2.642203
 30
0.0
  0
VERTEX
  8
DEFAULT
  5
C25
 10
0.182947
 20
2.645826
 30
0.0
  0
VERTEX
  8
DEFAULT
  5
C26
 10
0.189406
 20
2.648971
 30
0.0
  0
VERTEX
  8
DEFAULT
  5
C27
 10
0.19637
 20
2.651635
 30
0.0
  0
VERTEX
  8
DEFAULT
  5
C28
 10
0.211813
 20
2.655526
 30
0.0
  0
SEQEND
  8
DEFAULT
  5
C29
  0
POLYLINE
  8
DEFAULT
  5
C2A
 66
     1
 10
0.0
 20
0.0
 30
0.0
210
0.0
220
0.0
230
1.0
  0
VERTEX
  8
DEFAULT
  5
C2B
 10
0.225813
 20
2.305926
 30
0.0
  0
VERTEX
  8
DEFAULT
  5
C2C
 10
0.221013
 20
2.271526
 30
0.0
  0
VERTEX
  8
DEFAULT
  5
C2D
 10
0.204239
 20
2.275457
 30
0.0
  0
VERTEX
  8
DEFAULT
  5
C2E
 10
0.189391
 20
2.281594
 30
0.0
  0
VERTEX
  8
DEFAULT
  5
C2F
 10
0.18269
 20
2.285491
 30
0.0
  0
VERTEX
  8
DEFAULT
  5
C30
 10
0.17647
 20
2.289938
 30
0.0
  0
VERTEX
  8
DEFAULT
  5
C31
 10
0.170732
 20
2.294937
 30
0.0
  0
VERTEX
  8
DEFAULT
  5
C32
 10
0.165476
 20
2.300488
 30
0.0
  0
VERTEX
  8
DEFAULT
  5
C33
 10
0.160773
 20
2.306481
 30
0.0
  0
VERTEX
  8
DEFAULT
  5
C34
 10
0.156698
 20
2.312805
 30
0.0
  0
VERTEX
  8
DEFAULT
  5
C35
 10
0.15325
 20
2.319462
 30
0.0
  0
VERTEX
  8
DEFAULT
  5
C36
 10
0.150429
 20
2.326451
 30
0.0
  0
VERTEX
  8
DEFAULT
  5
C37
 10
0.148234
 20
2.333771
 30
0.0
  0
VERTEX
  8
DEFAULT
  5
C38
 10
0.146667
 20
2.341424
 30
0.0
  0
VERTEX
  8
DEFAULT
  5
C39
 10
0.145413
 20
2.357726
 30
0.0
  0
VERTEX
  8
DEFAULT
  5
C3A
 10
0.145847
 20
2.368095
 30
0.0
  0
VERTEX
  8
DEFAULT
  5
C3B
 10
0.147149
 20
2.377943
 30
0.0
  0
VERTEX
  8
DEFAULT
  5
C3C
 10
0.14932
 20
2.387269
 30
0.0
  0
VERTEX
  8
DEFAULT
  5
C3D
 10
0.152358
 20
2.396075
 30
0.0
  0
VERTEX
  8
DEFAULT
  5
C3E
 10
0.156265
 20
2.404359
 30
0.0
  0
VERTEX
  8
DEFAULT
  5
C3F
 10
0.16104
 20
2.412122
 30
0.0
  0
VERTEX
  8
DEFAULT
  5
C40
 10
0.166683
 20
2.419364
 30
0.0
  0
VERTEX
  8
DEFAULT
  5
C41
 10
0.173194
 20
2.426085
 30
0.0
  0
VERTEX
  8
DEFAULT
  5
C42
 10
0.180516
 20
2.432141
 30
0.0
  0
VERTEX
  8
DEFAULT
  5
C43
 10
0.18859
 20
2.43739
 30
0.0
  0
VERTEX
  8
DEFAULT
  5
C44
 10
0.197416
 20
2.441832
 30
0.0
  0
VERTEX
  8
DEFAULT
  5
C45
 10
0.206994
 20
2.445466
 30
0.0
  0
VERTEX
  8
DEFAULT
  5
C46
 10
0.228408
 20
2.450311
 30
0.0
  0
VERTEX
  8
DEFAULT
  5
C47
 10
0.252832
 20
2.451926
 30
0.0
  0
VERTEX
  8
DEFAULT
  5
C48
 10
0.269074
 20
2.45123
 30
0.0
  0
VERTEX
  8
DEFAULT
  5
C49
 10
0.284268
 20
2.449144
 30
0.0
  0
VERTEX
  8
DEFAULT
  5
C4A
 10
0.298414
 20
2.445668
 30
0.0
  0
VERTEX
  8
DEFAULT
  5
C4B
 10
0.311513
 20
2.440801
 30
0.0
  0
VERTEX
  8
DEFAULT
  5
C4C
 10
0.323302
 20
2.434513
 30
0.0
  0
VERTEX
  8
DEFAULT
  5
C4D
 10
0.333519
 20
2.426773
 30
0.0
  0
VERTEX
  8
DEFAULT
  5
C4E
 10
0.342165
 20
2.417583
 30
0.0
  0
VERTEX
  8
DEFAULT
  5
C4F
 10
0.349238
 20
2.406941
 30
0.0
  0
VERTEX
  8
DEFAULT
  5
C50
 10
0.35474
 20
2.395324
 30
0.0
  0
VERTEX
  8
DEFAULT
  5
C51
 10
0.358669
 20
2.383206
 30
0.0
  0
VERTEX
  8
DEFAULT
  5
C52
 10
0.361027
 20
2.370588
 30
0.0
  0
VERTEX
  8
DEFAULT
  5
C53
 10
0.361813
 20
2.357469
 30
0.0
  0
VERTEX
  8
DEFAULT
  5
C54
 10
0.360745
 20
2.341357
 30
0.0
  0
VERTEX
  8
DEFAULT
  5
C55
 10
0.357542
 20
2.326781
 30
0.0
  0
VERTEX
  8
DEFAULT
  5
C56
 10
0.355139
 20
2.32007
 30
0.0
  0
VERTEX
  8
DEFAULT
  5
C57
 10
0.352203
 20
2.313743
 30
0.0
  0
VERTEX
  8
DEFAULT
  5
C58
 10
0.348733
 20
2.3078
 30
0.0
  0
VERTEX
  8
DEFAULT
  5
C59
 10
0.344729
 20
2.302241
 30
0.0
  0
VERTEX
  8
DEFAULT
  5
C5A
 10
0.340233
 20
2.297116
 30
0.0
  0
VERTEX
  8
DEFAULT
  5
C5B
 10
0.33529
 20
2.292472
 30
0.0
  0
VERTEX
  8
DEFAULT
  5
C5C
 10
0.329898
 20
2.28831
 30
0.0
  0
VERTEX
  8
DEFAULT
  5
C5D
 10
0.324058
 20
2.28463
 30
0.0
  0
VERTEX
  8
DEFAULT
  5
C5E
 10
0.311032
 20
2.278714
 30
0.0
  0
VERTEX
  8
DEFAULT
  5
C5F
 10
0.296213
 20
2.274726
 30
0.0
  0
VERTEX
  8
DEFAULT
  5
C60
 10
0.291013
 20
2.308726
 30
0.0
  0
VERTEX
  8
DEFAULT
  5
C61
 10
0.300816
 20
2.31164
 30
0.0
  0
VERTEX
  8
DEFAULT
  5
C62
 10
0.309326
 20
2.315497
 30
0.0
  0
VERTEX
  8
DEFAULT
  5
C63
 10
0.316541
 20
2.320295
 30
0.0
  0
VERTEX
  8
DEFAULT
  5
C64
 10
0.319664
 20
2.323047
 30
0.0
  0
VERTEX
  8
DEFAULT
  5
C65
 10
0.322463
 20
2.326035
 30
0.0
  0
VERTEX
  8
DEFAULT
  5
C66
 10
0.324936
 20
2.329222
 30
0.0
  0
VERTEX
  8
DEFAULT
  5
C67
 10
0.327079
 20
2.33257
 30
0.0
  0
VERTEX
  8
DEFAULT
  5
C68
 10
0.328892
 20
2.336081
 30
0.0
  0
VERTEX
  8
DEFAULT
  5
C69
 10
0.330376
 20
2.339753
 30
0.0
  0
VERTEX
  8
DEFAULT
  5
C6A
 10
0.331529
 20
2.343588
 30
0.0
  0
VERTEX
  8
DEFAULT
  5
C6B
 10
0.332354
 20
2.347584
 30
0.0
  0
VERTEX
  8
DEFAULT
  5
C6C
 10
0.333013
 20
2.356063
 30
0.0
  0
VERTEX
  8
DEFAULT
  5
C6D
 10
0.332716
 20
2.362559
 30
0.0
  0
VERTEX
  8
DEFAULT
  5
C6E
 10
0.331824
 20
2.368743
 30
0.0
  0
VERTEX
  8
DEFAULT
  5
C6F
 10
0.330338
 20
2.374615
 30
0.0
  0
VERTEX
  8
DEFAULT
  5
C70
 10
0.328258
 20
2.380175
 30
0.0
  0
VERTEX
  8
DEFAULT
  5
C71
 10
0.325583
 20
2.385423
 30
0.0
  0
VERTEX
  8
DEFAULT
  5
C72
 10
0.322313
 20
2.39036
 30
0.0
  0
VERTEX
  8
DEFAULT
  5
C73
 10
0.318449
 20
2.394985
 30
0.0
  0
VERTEX
  8
DEFAULT
  5
C74
 10
0.313991
 20
2.399298
 30
0.0
  0
VERTEX
  8
DEFAULT
  5
C75
 10
0.30889
 20
2.403195
 30
0.0
  0
VERTEX
  8
DEFAULT
  5
C76
 10
0.303096
 20
2.406572
 30
0.0
  0
VERTEX
  8
DEFAULT
  5
C77
 10
0.296611
 20
2.40943
 30
0.0
  0
VERTEX
  8
DEFAULT
  5
C78
 10
0.289434
 20
2.411769
 30
0.0
  0
VERTEX
  8
DEFAULT
  5
C79
 10
0.273004
 20
2.414886
 30
0.0
  0
VERTEX
  8
DEFAULT
  5
C7A
 10
0.253807
 20
2.415926
 30
0.0
  0
VERTEX
  8
DEFAULT
  5
C7B
 10
0.234359
 20
2.414924
 30
0.0
  0
VERTEX
  8
DEFAULT
  5
C7C
 10
0.217764
 20
2.41192
 30
0.0
  0
VERTEX
  8
DEFAULT
  5
C7D
 10
0.210537
 20
2.409667
 30
0.0
  0
VERTEX
  8
DEFAULT
  5
C7E
 10
0.204023
 20
2.406913
 30
0.0
  0
VERTEX
  8
DEFAULT
  5
C7F
 10
0.198222
 20
2.403659
 30
0.0
  0
VERTEX
  8
DEFAULT
  5
C80
 10
0.193135
 20
2.399904
 30
0.0
  0
VERTEX
  8
DEFAULT
  5
C81
 10
0.1887
 20
2.395746
 30
0.0
  0
VERTEX
  8
DEFAULT
  5
C82
 10
0.184857
 20
2.391283
 30
0.0
  0
VERTEX
  8
DEFAULT
  5
C83
 10
0.181604
 20
2.386514
 30
0.0
  0
VERTEX
  8
DEFAULT
  5
C84
 10
0.178943
 20
2.381441
 30
0.0
  0
VERTEX
  8
DEFAULT
  5
C85
 10
0.176874
 20
2.376062
 30
0.0
  0
VERTEX
  8
DEFAULT
  5
C86
 10
0.175396
 20
2.370378
 30
0.0
  0
VERTEX
  8
DEFAULT
  5
C87
 10
0.174509
 20
2.364389
 30
0.0
  0
VERTEX
  8
DEFAULT
  5
C88
 10
0.174213
 20
2.358094
 30
0.0
  0
VERTEX
  8
DEFAULT
  5
C89
 10
0.175004
 20
2.348166
 30
0.0
  0
VERTEX
  8
DEFAULT
  5
C8A
 10
0.175993
 20
2.343522
 30
0.0
  0
VERTEX
  8
DEFAULT
  5
C8B
 10
0.177377
 20
2.339092
 30
0.0
  0
VERTEX
  8
DEFAULT
  5
C8C
 10
0.179157
 20
2.334876
 30
0.0
  0
VERTEX
  8
DEFAULT
  5
C8D
 10
0.181332
 20
2.330874
 30
0.0
  0
VERTEX
  8
DEFAULT
  5
C8E
 10
0.183903
 20
2.327085
 30
0.0
  0
VERTEX
  8
DEFAULT
  5
C8F
 10
0.186869
 20
2.32351
 30
0.0
  0
VERTEX
  8
DEFAULT
  5
C90
 10
0.190246
 20
2.320201
 30
0.0
  0
VERTEX
  8
DEFAULT
  5
C91
 10
0.194049
 20
2.317209
 30
0.0
  0
VERTEX
  8
DEFAULT
  5
C92
 10
0.198278
 20
2.314535
 30
0.0
  0
VERTEX
  8
DEFAULT
  5
C93
 10
0.202933
 20
2.312178
 30
0.0
  0
VERTEX
  8
DEFAULT
  5
C94
 10
0.213521
 20
2.308417
 30
0.0
  0
VERTEX
  8
DEFAULT
  5
C95
 10
0.225813
 20
2.305926
 30
0.0
  0
SEQEND
  8
DEFAULT
  5
C96
  0
POLYLINE
  8
DEFAULT
  5
C97
 66
     1
 10
0.0
 20
0.0
 30
0.0
210
0.0
220
0.0
230
1.0
  0
VERTEX
  8
DEFAULT
  5
C98
 10
0.253613
 20
2.254726
 30
0.0
  0
VERTEX
  8
DEFAULT
  5
C99
 10
0.280505
 20
2.252723
 30
0.0
  0
VERTEX
  8
DEFAULT
  5
C9A
 10
0.292552
 20
2.25022
 30
0.0
  0
VERTEX
  8
DEFAULT
  5
C9B
 10
0.303668
 20
2.246715
 30
0.0
  0
VERTEX
  8
DEFAULT
  5
C9C
 10
0.313851
 20
2.242209
 30
0.0
  0
VERTEX
  8
DEFAULT
  5
C9D
 10
0.323102
 20
2.236701
 30
0.0
  0
VERTEX
  8
DEFAULT
  5
C9E
 10
0.33142
 20
2.230192
 30
0.0
  0
VERTEX
  8
DEFAULT
  5
C9F
 10
0.338807
 20
2.222682
 30
0.0
  0
VERTEX
  8
DEFAULT
  5
CA0
 10
0.344199
 20
2.215808
 30
0.0
  0
VERTEX
  8
DEFAULT
  5
CA1
 10
0.348872
 20
2.208567
 30
0.0
  0
VERTEX
  8
DEFAULT
  5
CA2
 10
0.352826
 20
2.20096
 30
0.0
  0
VERTEX
  8
DEFAULT
  5
CA3
 10
0.356061
 20
2.192987
 30
0.0
  0
VERTEX
  8
DEFAULT
  5
CA4
 10
0.358578
 20
2.184646
 30
0.0
  0
VERTEX
  8
DEFAULT
  5
CA5
 10
0.360375
 20
2.175939
 30
0.0
  0
VERTEX
  8
DEFAULT
  5
CA6
 10
0.361813
 20
2.157426
 30
0.0
  0
VERTEX
  8
DEFAULT
  5
CA7
 10
0.361376
 20
2.146973
 30
0.0
  0
VERTEX
  8
DEFAULT
  5
CA8
 10
0.360065
 20
2.137009
 30
0.0
  0
VERTEX
  8
DEFAULT
  5
CA9
 10
0.357879
 20
2.127533
 30
0.0
  0
VERTEX
  8
DEFAULT
  5
CAA
 10
0.354819
 20
2.118546
 30
0.0
  0
VERTEX
  8
DEFAULT
  5
CAB
 10
0.350885
 20
2.110047
 30
0.0
  0
VERTEX
  8
DEFAULT
  5
CAC
 10
0.346077
 20
2.102037
 30
0.0
  0
VERTEX
  8
DEFAULT
  5
CAD
 10
0.340395
 20
2.094515
 30
0.0
  0
VERTEX
  8
DEFAULT
  5
CAE
 10
0.333838
 20
2.087482
 30
0.0
  0
VERTEX
  8
DEFAULT
  5
CAF
 10
0.326511
 20
2.081117
 30
0.0
  0
VERTEX
  8
DEFAULT
  5
CB0
 10
0.318516
 20
2.075601
 30
0.0
  0
VERTEX
  8
DEFAULT
  5
CB1
 10
0.309854
 20
2.070934
 30
0.0
  0
VERTEX
  8
DEFAULT
  5
CB2
 10
0.300526
 20
2.067115
 30
0.0
  0
VERTEX
  8
DEFAULT
  5
CB3
 10
0.290529
 20
2.064145
 30
0.0
  0
VERTEX
  8
DEFAULT
  5
CB4
 10
0.279866
 20
2.062023
 30
0.0
  0
VERTEX
  8
DEFAULT
  5
CB5
 10
0.256538
 20
2.060326
 30
0.0
  0
VERTEX
  8
DEFAULT
  5
CB6
 10
0.23762
 20
2.061077
 30
0.0
  0
VERTEX
  8
DEFAULT
  5
CB7
 10
0.220835
 20
2.06333
 30
0.0
  0
VERTEX
  8
DEFAULT
  5
CB8
 10
0.206183
 20
2.067084
 30
0.0
  0
VERTEX
  8
DEFAULT
  5
CB9
 10
0.193663
 20
2.072341
 30
0.0
  0
VERTEX
  8
DEFAULT
  5
CBA
 10
0.18285
 20
2.079033
 30
0.0
  0
VERTEX
  8
DEFAULT
  5
CBB
 10
0.173315
 20
2.087092
 30
0.0
  0
VERTEX
  8
DEFAULT
  5
CBC
 10
0.16506
 20
2.096519
 30
0.0
  0
VERTEX
  8
DEFAULT
  5
CBD
 10
0.158085
 20
2.107313
 30
0.0
  0
VERTEX
  8
DEFAULT
  5
CBE
 10
0.152541
 20
2.119054
 30
0.0
  0
VERTEX
  8
DEFAULT
  5
CBF
 10
0.148581
 20
2.131319
 30
0.0
  0
VERTEX
  8
DEFAULT
  5
CC0
 10
0.146205
 20
2.14411
 30
0.0
  0
VERTEX
  8
DEFAULT
  5
CC1
 10
0.145413
 20
2.157426
 30
0.0
  0
VERTEX
  8
DEFAULT
  5
CC2
 10
0.145849
 20
2.168057
 30
0.0
  0
VERTEX
  8
DEFAULT
  5
CC3
 10
0.147155
 20
2.178166
 30
0.0
  0
VERTEX
  8
DEFAULT
  5
CC4
 10
0.149333
 20
2.187753
 30
0.0
  0
VERTEX
  8
DEFAULT
  5
CC5
 10
0.152383
 20
2.196819
 30
0.0
  0
VERTEX
  8
DEFAULT
  5
CC6
 10
0.156303
 20
2.205362
 30
0.0
  0
VERTEX
  8
DEFAULT
  5
CC7
 10
0.161094
 20
2.213383
 30
0.0
  0
VERTEX
  8
DEFAULT
  5
CC8
 10
0.166757
 20
2.220883
 30
0.0
  0
VERTEX
  8
DEFAULT
  5
CC9
 10
0.173291
 20
2.22786
 30
0.0
  0
VERTEX
  8
DEFAULT
  5
CCA
 10
0.180645
 20
2.234157
 30
0.0
  0
VERTEX
  8
DEFAULT
  5
CCB
 10
0.188766
 20
2.239614
 30
0.0
  0
VERTEX
  8
DEFAULT
  5
CCC
 10
0.197654
 20
2.244231
 30
0.0
  0
VERTEX
  8
DEFAULT
  5
CCD
 10
0.207311
 20
2.248009
 30
0.0
  0
VERTEX
  8
DEFAULT
  5
CCE
 10
0.217735
 20
2.250948
 30
0.0
  0
VERTEX
  8
DEFAULT
  5
CCF
 10
0.228926
 20
2.253047
 30
0.0
  0
VERTEX
  8
DEFAULT
  5
CD0
 10
0.253613
 20
2.254726
 30
0.0
  0
SEQEND
  8
DEFAULT
  5
CD1
  0
POLYLINE
  8
DEFAULT
  5
CD2
 66
     1
 10
0.0
 20
0.0
 30
0.0
210
0.0
220
0.0
230
1.0
  0
VERTEX
  8
DEFAULT
  5
CD3
 10
0.253513
 20
2.218726
 30
0.0
  0
VERTEX
  8
DEFAULT
  5
CD4
 10
0.234886
 20
2.217636
 30
0.0
  0
VERTEX
  8
DEFAULT
  5
CD5
 10
0.218757
 20
2.214368
 30
0.0
  0
VERTEX
  8
DEFAULT
  5
CD6
 10
0.211628
 20
2.211917
 30
0.0
  0
VERTEX
  8
DEFAULT
  5
CD7
 10
0.205124
 20
2.208921
 30
0.0
  0
VERTEX
  8
DEFAULT
  5
CD8
 10
0.199244
 20
2.20538
 30
0.0
  0
VERTEX
  8
DEFAULT
  5
CD9
 10
0.193988
 20
2.201294
 30
0.0
  0
VERTEX
  8
DEFAULT
  5
CDA
 10
0.189353
 20
2.196796
 30
0.0
  0
VERTEX
  8
DEFAULT
  5
CDB
 10
0.185336
 20
2.192016
 30
0.0
  0
VERTEX
  8
DEFAULT
  5
CDC
 10
0.181938
 20
2.186955
 30
0.0
  0
VERTEX
  8
DEFAULT
  5
CDD
 10
0.179157
 20
2.181612
 30
0.0
  0
VERTEX
  8
DEFAULT
  5
CDE
 10
0.176994
 20
2.175987
 30
0.0
  0
VERTEX
  8
DEFAULT
  5
CDF
 10
0.175449
 20
2.170082
 30
0.0
  0
VERTEX
  8
DEFAULT
  5
CE0
 10
0.174522
 20
2.163894
 30
0.0
  0
VERTEX
  8
DEFAULT
  5
CE1
 10
0.174213
 20
2.157426
 30
0.0
  0
VERTEX
  8
DEFAULT
  5
CE2
 10
0.174524
 20
2.151004
 30
0.0
  0
VERTEX
  8
DEFAULT
  5
CE3
 10
0.175455
 20
2.144857
 30
0.0
  0
VERTEX
  8
DEFAULT
  5
CE4
 10
0.177007
 20
2.138986
 30
0.0
  0
VERTEX
  8
DEFAULT
  5
CE5
 10
0.179181
 20
2.13339
 30
0.0
  0
VERTEX
  8
DEFAULT
  5
CE6
 10
0.181975
 20
2.128069
 30
0.0
  0
VERTEX
  8
DEFAULT
  5
CE7
 10
0.185391
 20
2.123023
 30
0.0
  0
VERTEX
  8
DEFAULT
  5
CE8
 10
0.189427
 20
2.118252
 30
0.0
  0
VERTEX
  8
DEFAULT
  5
CE9
 10
0.194085
 20
2.113757
 30
0.0
  0
VERTEX
  8
DEFAULT
  5
CEA
 10
0.199379
 20
2.109671
 30
0.0
  0
VERTEX
  8
DEFAULT
  5
CEB
 10
0.205324
 20
2.106131
 30
0.0
  0
VERTEX
  8
DEFAULT
  5
CEC
 10
0.211921
 20
2.103135
 30
0.0
  0
VERTEX
  8
DEFAULT
  5
CED
 10
0.21917
 20
2.100684
 30
0.0
  0
VERTEX
  8
DEFAULT
  5
CEE
 10
0.235623
 20
2.097415
 30
0.0
  0
VERTEX
  8
DEFAULT
  5
CEF
 10
0.254682
 20
2.096326
 30
0.0
  0
VERTEX
  8
DEFAULT
  5
CF0
 10
0.272709
 20
2.097421
 30
0.0
  0
VERTEX
  8
DEFAULT
  5
CF1
 10
0.288411
 20
2.100708
 30
0.0
  0
VERTEX
  8
DEFAULT
  5
CF2
 10
0.29539
 20
2.103173
 30
0.0
  0
VERTEX
  8
DEFAULT
  5
CF3
 10
0.301788
 20
2.106185
 30
0.0
  0
VERTEX
  8
DEFAULT
  5
CF4
 10
0.307604
 20
2.109746
 30
0.0
  0
VERTEX
  8
DEFAULT
  5
CF5
 10
0.312838
 20
2.113854
 30
0.0
  0
VERTEX
  8
DEFAULT
  5
CF6
 10
0.317473
 20
2.118369
 30
0.0
  0
VERTEX
  8
DEFAULT
  5
CF7
 10
0.32149
 20
2.12315
 30
0.0
  0
VERTEX
  8
DEFAULT
  5
CF8
 10
0.324888
 20
2.128197
 30
0.0
  0
VERTEX
  8
DEFAULT
  5
CF9
 10
0.327669
 20
2.133511
 30
0.0
  0
VERTEX
  8
DEFAULT
  5
CFA
 10
0.329832
 20
2.13909
 30
0.0
  0
VERTEX
  8
DEFAULT
  5
CFB
 10
0.331377
 20
2.144936
 30
0.0
  0
VERTEX
  8
DEFAULT
  5
CFC
 10
0.332304
 20
2.151048
 30
0.0
  0
VERTEX
  8
DEFAULT
  5
CFD
 10
0.332613
 20
2.157426
 30
0.0
  0
VERTEX
  8
DEFAULT
  5
CFE
 10
0.332306
 20
2.163894
 30
0.0
  0
VERTEX
  8
DEFAULT
  5
CFF
 10
0.331383
 20
2.170082
 30
0.0
  0
VERTEX
  8
DEFAULT
  5
D00
 10
0.329846
 20
2.175987
 30
0.0
  0
VERTEX
  8
DEFAULT
  5
D01
 10
0.327693
 20
2.181612
 30
0.0
  0
VERTEX
  8
DEFAULT
  5
D02
 10
0.324926
 20
2.186955
 30
0.0
  0
VERTEX
  8
DEFAULT
  5
D03
 10
0.321544
 20
2.192016
 30
0.0
  0
VERTEX
  8
DEFAULT
  5
D04
 10
0.317547
 20
2.196796
 30
0.0
  0
VERTEX
  8
DEFAULT
  5
D05
 10
0.312935
 20
2.201294
 30
0.0
  0
VERTEX
  8
DEFAULT
  5
D06
 10
0.307702
 20
2.20538
 30
0.0
  0
VERTEX
  8
DEFAULT
  5
D07
 10
0.301842
 20
2.208921
 30
0.0
  0
VERTEX
  8
DEFAULT
  5
D08
 10
0.295355
 20
2.211917
 30
0.0
  0
VERTEX
  8
DEFAULT
  5
D09
 10
0.28824
 20
2.214368
 30
0.0
  0
VERTEX
  8
DEFAULT
  5
D0A
 10
0.272131
 20
2.217636
 30
0.0
  0
VERTEX
  8
DEFAULT
  5
D0B
 10
0.253513
 20
2.218726
 30
0.0
  0
SEQEND
  8
DEFAULT
  5
D0C
  0
POLYLINE
  8
DEFAULT
  5
D0D
 66
     1
 10
0.0
 20
0.0
 30
0.0
210
0.0
220
0.0
230
1.0
  0
VERTEX
  8
DEFAULT
  5
D0E
 10
0.181194
 20
1.942726
 30
0.0
  0
VERTEX
  8
DEFAULT
  5
D0F
 10
0.150138
 20
1.937926
 30
0.0
  0
VERTEX
  8
DEFAULT
  5
D10
 10
0.147013
 20
1.964419
 30
0.0
  0
VERTEX
  8
DEFAULT
  5
D11
 10
0.153082
 20
1.994032
 30
0.0
  0
VERTEX
  8
DEFAULT
  5
D12
 10
0.169035
 20
2.008838
 30
0.0
  0
VERTEX
  8
DEFAULT
  5
D13
 10
0.210626
 20
2.013126
 30
0.0
  0
VERTEX
  8
DEFAULT
  5
D14
 10
0.330213
 20
2.013126
 30
0.0
  0
VERTEX
  8
DEFAULT
  5
D15
 10
0.330213
 20
2.039126
 30
0.0
  0
VERTEX
  8
DEFAULT
  5
D16
 10
0.357413
 20
2.039126
 30
0.0
  0
VERTEX
  8
DEFAULT
  5
D17
 10
0.357413
 20
2.013126
 30
0.0
  0
VERTEX
  8
DEFAULT
  5
D18
 10
0.408776
 20
2.013126
 30
0.0
  0
VERTEX
  8
DEFAULT
  5
D19
 10
0.429869
 20
1.977926
 30
0.0
  0
VERTEX
  8
DEFAULT
  5
D1A
 10
0.357413
 20
1.977926
 30
0.0
  0
VERTEX
  8
DEFAULT
  5
D1B
 10
0.357413
 20
1.942726
 30
0.0
  0
VERTEX
  8
DEFAULT
  5
D1C
 10
0.330213
 20
1.942726
 30
0.0
  0
VERTEX
  8
DEFAULT
  5
D1D
 10
0.330213
 20
1.977926
 30
0.0
  0
VERTEX
  8
DEFAULT
  5
D1E
 10
0.208601
 20
1.977926
 30
0.0
  0
VERTEX
  8
DEFAULT
  5
D1F
 10
0.189213
 20
1.976079
 30
0.0
  0
VERTEX
  8
DEFAULT
  5
D20
 10
0.18236
 20
1.970051
 30
0.0
  0
VERTEX
  8
DEFAULT
  5
D21
 10
0.179813
 20
1.958088
 30
0.0
  0
VERTEX
  8
DEFAULT
  5
D22
 10
0.181194
 20
1.942726
 30
0.0
  0
SEQEND
  8
DEFAULT
  5
D23
  0
POLYLINE
  8
DEFAULT
  5
D24
 66
     1
 10
0.0
 20
0.0
 30
0.0
210
0.0
220
0.0
230
1.0
  0
VERTEX
  8
DEFAULT
  5
D25
 10
0.181194
 20
1.831526
 30
0.0
  0
VERTEX
  8
DEFAULT
  5
D26
 10
0.150138
 20
1.826726
 30
0.0
  0
VERTEX
  8
DEFAULT
  5
D27
 10
0.147013
 20
1.853219
 30
0.0
  0
VERTEX
  8
DEFAULT
  5
D28
 10
0.153082
 20
1.882832
 30
0.0
  0
VERTEX
  8
DEFAULT
  5
D29
 10
0.169035
 20
1.897638
 30
0.0
  0
VERTEX
  8
DEFAULT
  5
D2A
 10
0.210626
 20
1.901926
 30
0.0
  0
VERTEX
  8
DEFAULT
  5
D2B
 10
0.330213
 20
1.901926
 30
0.0
  0
VERTEX
  8
DEFAULT
  5
D2C
 10
0.330213
 20
1.927926
 30
0.0
  0
VERTEX
  8
DEFAULT
  5
D2D
 10
0.357413
 20
1.927926
 30
0.0
  0
VERTEX
  8
DEFAULT
  5
D2E
 10
0.357413
 20
1.901926
 30
0.0
  0
VERTEX
  8
DEFAULT
  5
D2F
 10
0.408776
 20
1.901926
 30
0.0
  0
VERTEX
  8
DEFAULT
  5
D30
 10
0.429869
 20
1.866726
 30
0.0
  0
VERTEX
  8
DEFAULT
  5
D31
 10
0.357413
 20
1.866726
 30
0.0
  0
VERTEX
  8
DEFAULT
  5
D32
 10
0.357413
 20
1.831526
 30
0.0
  0
VERTEX
  8
DEFAULT
  5
D33
 10
0.330213
 20
1.831526
 30
0.0
  0
VERTEX
  8
DEFAULT
  5
D34
 10
0.330213
 20
1.866726
 30
0.0
  0
VERTEX
  8
DEFAULT
  5
D35
 10
0.208601
 20
1.866726
 30
0.0
  0
VERTEX
  8
DEFAULT
  5
D36
 10
0.189213
 20
1.864879
 30
0.0
  0
VERTEX
  8
DEFAULT
  5
D37
 10
0.18236
 20
1.858851
 30
0.0
  0
VERTEX
  8
DEFAULT
  5
D38
 10
0.179813
 20
1.846888
 30
0.0
  0
VERTEX
  8
DEFAULT
  5
D39
 10
0.181194
 20
1.831526
 30
0.0
  0
SEQEND
  8
DEFAULT
  5
D3A
  0
POLYLINE
  8
DEFAULT
  5
D3B
 66
     1
 10
0.0
 20
0.0
 30
0.0
210
0.0
220
0.0
230
1.0
  0
VERTEX
  8
DEFAULT
  5
D3C
 10
0.149813
 20
1.786726
 30
0.0
  0
VERTEX
  8
DEFAULT
  5
D3D
 10
0.189813
 20
1.786726
 30
0.0
  0
VERTEX
  8
DEFAULT
  5
D3E
 10
0.189813
 20
1.746726
 30
0.0
  0
VERTEX
  8
DEFAULT
  5
D3F
 10
0.149813
 20
1.746726
 30
0.0
  0
VERTEX
  8
DEFAULT
  5
D40
 10
0.149813
 20
1.786726
 30
0.0
  0
SEQEND
  8
DEFAULT
  5
D41
  0
POLYLINE
  8
DEFAULT
  5
D42
 66
     1
 10
0.0
 20
0.0
 30
0.0
210
0.0
220
0.0
230
1.0
  0
VERTEX
  8
DEFAULT
  5
D43
 10
0.149813
 20
1.685526
 30
0.0
  0
VERTEX
  8
DEFAULT
  5
D44
 10
0.357413
 20
1.685526
 30
0.0
  0
VERTEX
  8
DEFAULT
  5
D45
 10
0.357413
 20
1.653926
 30
0.0
  0
VERTEX
  8
DEFAULT
  5
D46
 10
0.327919
 20
1.653926
 30
0.0
  0
VERTEX
  8
DEFAULT
  5
D47
 10
0.335863
 20
1.647901
 30
0.0
  0
VERTEX
  8
DEFAULT
  5
D48
 10
0.342748
 20
1.641241
 30
0.0
  0
VERTEX
  8
DEFAULT
  5
D49
 10
0.348573
 20
1.633948
 30
0.0
  0
VERTEX
  8
DEFAULT
  5
D4A
 10
0.35334
 20
1.626019
 30
0.0
  0
VERTEX
  8
DEFAULT
  5
D4B
 10
0.357047
 20
1.617457
 30
0.0
  0
VERTEX
  8
DEFAULT
  5
D4C
 10
0.359695
 20
1.60826
 30
0.0
  0
VERTEX
  8
DEFAULT
  5
D4D
 10
0.361283
 20
1.598429
 30
0.0
  0
VERTEX
  8
DEFAULT
  5
D4E
 10
0.361813
 20
1.587963
 30
0.0
  0
VERTEX
  8
DEFAULT
  5
D4F
 10
0.355079
 20
1.553523
 30
0.0
  0
VERTEX
  8
DEFAULT
  5
D50
 10
0.337413
 20
1.530007
 30
0.0
  0
VERTEX
  8
DEFAULT
  5
D51
 10
0.311451
 20
1.519076
 30
0.0
  0
VERTEX
  8
DEFAULT
  5
D52
 10
0.277288
 20
1.517126
 30
0.0
  0
VERTEX
  8
DEFAULT
  5
D53
 10
0.149813
 20
1.517126
 30
0.0
  0
VERTEX
  8
DEFAULT
  5
D54
 10
0.149813
 20
1.552326
 30
0.0
  0
VERTEX
  8
DEFAULT
  5
D55
 10
0.275957
 20
1.552326
 30
0.0
  0
VERTEX
  8
DEFAULT
  5
D56
 10
0.308079
 20
1.556416
 30
0.0
  0
VERTEX
  8
DEFAULT
  5
D57
 10
0.325066
 20
1.570932
 30
0.0
  0
VERTEX
  8
DEFAULT
  5
D58
 10
0.331413
 20
1.595382
 30
0.0
  0
VERTEX
  8
DEFAULT
  5
D59
 10
0.330522
 20
1.606201
 30
0.0
  0
VERTEX
  8
DEFAULT
  5
D5A
 10
0.329409
 20
1.611324
 30
0.0
  0
VERTEX
  8
DEFAULT
  5
D5B
 10
0.32785
 20
1.616254
 30
0.0
  0
VERTEX
  8
DEFAULT
  5
D5C
 10
0.325845
 20
1.620992
 30
0.0
  0
VERTEX
  8
DEFAULT
  5
D5D
 10
0.323396
 20
1.625539
 30
0.0
  0
VERTEX
  8
DEFAULT
  5
D5E
 10
0.3205
 20
1.629894
 30
0.0
  0
VERTEX
  8
DEFAULT
  5
D5F
 10
0.31716
 20
1.634057
 30
0.0
  0
VERTEX
  8
DEFAULT
  5
D60
 10
0.313197
 20
1.63787
 30
0.0
  0
VERTEX
  8
DEFAULT
  5
D61
 10
0.308434
 20
1.641175
 30
0.0
  0
VERTEX
  8
DEFAULT
  5
D62
 10
0.302872
 20
1.643971
 30
0.0
  0
VERTEX
  8
DEFAULT
  5
D63
 10
0.296511
 20
1.646259
 30
0.0
  0
VERTEX
  8
DEFAULT
  5
D64
 10
0.281389
 20
1.649309
 30
0.0
  0
VERTEX
  8
DEFAULT
  5
D65
 10
0.263069
 20
1.650326
 30
0.0
  0
VERTEX
  8
DEFAULT
  5
D66
 10
0.149813
 20
1.650326
 30
0.0
  0
VERTEX
  8
DEFAULT
  5
D67
 10
0.149813
 20
1.685526
 30
0.0
  0
SEQEND
  8
DEFAULT
  5
D68
  0
POLYLINE
  8
DEFAULT
  5
D69
 66
     1
 10
0.0
 20
0.0
 30
0.0
210
0.0
220
0.0
230
1.0
  0
VERTEX
  8
DEFAULT
  5
D6A
 10
0.217013
 20
1.321513
 30
0.0
  0
VERTEX
  8
DEFAULT
  5
D6B
 10
0.212213
 20
1.285101
 30
0.0
  0
VERTEX
  8
DEFAULT
  5
D6C
 10
0.19723
 20
1.290302
 30
0.0
  0
VERTEX
  8
DEFAULT
  5
D6D
 10
0.184023
 20
1.29733
 30
0.0
  0
VERTEX
  8
DEFAULT
  5
D6E
 10
0.178086
 20
1.301529
 30
0.0
  0
VERTEX
  8
DEFAULT
  5
D6F
 10
0.172594
 20
1.306184
 30
0.0
  0
VERTEX
  8
DEFAULT
  5
D70
 10
0.167545
 20
1.311297
 30
0.0
  0
VERTEX
  8
DEFAULT
  5
D71
 10
0.162941
 20
1.316866
 30
0.0
  0
VERTEX
  8
DEFAULT
  5
D72
 10
0.158833
 20
1.322865
 30
0.0
  0
VERTEX
  8
DEFAULT
  5
D73
 10
0.155273
 20
1.329266
 30
0.0
  0
VERTEX
  8
DEFAULT
  5
D74
 10
0.149795
 20
1.343273
 30
0.0
  0
VERTEX
  8
DEFAULT
  5
D75
 10
0.146509
 20
1.358889
 30
0.0
  0
VERTEX
  8
DEFAULT
  5
D76
 10
0.145413
 20
1.376113
 30
0.0
  0
VERTEX
  8
DEFAULT
  5
D77
 10
0.147161
 20
1.397641
 30
0.0
  0
VERTEX
  8
DEFAULT
  5
D78
 10
0.149347
 20
1.407524
 30
0.0
  0
VERTEX
  8
DEFAULT
  5
D79
 10
0.152407
 20
1.416819
 30
0.0
  0
VERTEX
  8
DEFAULT
  5
D7A
 10
0.156341
 20
1.425526
 30
0.0
  0
VERTEX
  8
DEFAULT
  5
D7B
 10
0.161149
 20
1.433646
 30
0.0
  0
VERTEX
  8
DEFAULT
  5
D7C
 10
0.166831
 20
1.441178
 30
0.0
  0
VERTEX
  8
DEFAULT
  5
D7D
 10
0.173388
 20
1.448123
 30
0.0
  0
VERTEX
  8
DEFAULT
  5
D7E
 10
0.180734
 20
1.454358
 30
0.0
  0
VERTEX
  8
DEFAULT
  5
D7F
 10
0.188783
 20
1.459761
 30
0.0
  0
VERTEX
  8
DEFAULT
  5
D80
 10
0.197536
 20
1.464334
 30
0.0
  0
VERTEX
  8
DEFAULT
  5
D81
 10
0.206993
 20
1.468075
 30
0.0
  0
VERTEX
  8
DEFAULT
  5
D82
 10
0.217153
 20
1.470985
 30
0.0
  0
VERTEX
  8
DEFAULT
  5
D83
 10
0.228017
 20
1.473063
 30
0.0
  0
VERTEX
  8
DEFAULT
  5
D84
 10
0.251857
 20
1.474726
 30
0.0
  0
VERTEX
  8
DEFAULT
  5
D85
 10
0.276519
 20
1.473045
 30
0.0
  0
VERTEX
  8
DEFAULT
  5
D86
 10
0.287754
 20
1.470944
 30
0.0
  0
VERTEX
  8
DEFAULT
  5
D87
 10
0.298258
 20
1.468002
 30
0.0
  0
VERTEX
  8
DEFAULT
  5
D88
 10
0.30803
 20
1.46422
 30
0.0
  0
VERTEX
  8
DEFAULT
  5
D89
 10
0.317071
 20
1.459598
 30
0.0
  0
VERTEX
  8
DEFAULT
  5
D8A
 10
0.325381
 20
1.454135
 30
0.0
  0
VERTEX
  8
DEFAULT
  5
D8B
 10
0.33296
 20
1.447832
 30
0.0
  0
VERTEX
  8
DEFAULT
  5
D8C
 10
0.339722
 20
1.440859
 30
0.0
  0
VERTEX
  8
DEFAULT
  5
D8D
 10
0.345583
 20
1.433386
 30
0.0
  0
VERTEX
  8
DEFAULT
  5
D8E
 10
0.350542
 20
1.425413
 30
0.0
  0
VERTEX
  8
DEFAULT
  5
D8F
 10
0.3546
 20
1.416941
 30
0.0
  0
VERTEX
  8
DEFAULT
  5
D90
 10
0.357756
 20
1.40797
 30
0.0
  0
VERTEX
  8
DEFAULT
  5
D91
 10
0.36001
 20
1.398498
 30
0.0
  0
VERTEX
  8
DEFAULT
  5
D92
 10
0.361362
 20
1.388527
 30
0.0
  0
VERTEX
  8
DEFAULT
  5
D93
 10
0.361813
 20
1.378057
 30
0.0
  0
VERTEX
  8
DEFAULT
  5
D94
 10
0.361371
 20
1.367916
 30
0.0
  0
VERTEX
  8
DEFAULT
  5
D95
 10
0.360046
 20
1.358251
 30
0.0
  0
VERTEX
  8
DEFAULT
  5
D96
 10
0.357837
 20
1.349061
 30
0.0
  0
VERTEX
  8
DEFAULT
  5
D97
 10
0.354744
 20
1.340345
 30
0.0
  0
VERTEX
  8
DEFAULT
  5
D98
 10
0.350768
 20
1.332105
 30
0.0
  0
VERTEX
  8
DEFAULT
  5
D99
 10
0.345908
 20
1.32434
 30
0.0
  0
VERTEX
  8
DEFAULT
  5
D9A
 10
0.340165
 20
1.31705
 30
0.0
  0
VERTEX
  8
DEFAULT
  5
D9B
 10
0.333538
 20
1.310235
 30
0.0
  0
VERTEX
  8
DEFAULT
  5
D9C
 10
0.32611
 20
1.304069
 30
0.0
  0
VERTEX
  8
DEFAULT
  5
D9D
 10
0.317962
 20
1.298725
 30
0.0
  0
VERTEX
  8
DEFAULT
  5
D9E
 10
0.309096
 20
1.294203
 30
0.0
  0
VERTEX
  8
DEFAULT
  5
D9F
 10
0.29951
 20
1.290503
 30
0.0
  0
VERTEX
  8
DEFAULT
  5
DA0
 10
0.289205
 20
1.287625
 30
0.0
  0
VERTEX
  8
DEFAULT
  5
DA1
 10
0.278181
 20
1.28557
 30
0.0
  0
VERTEX
  8
DEFAULT
  5
DA2
 10
0.253976
 20
1.283926
 30
0.0
  0
VERTEX
  8
DEFAULT
  5
DA3
 10
0.244613
 20
1.284119
 30
0.0
  0
VERTEX
  8
DEFAULT
  5
DA4
 10
0.244613
 20
1.438726
 30
0.0
  0
VERTEX
  8
DEFAULT
  5
DA5
 10
0.22855
 20
1.436788
 30
0.0
  0
VERTEX
  8
DEFAULT
  5
DA6
 10
0.214485
 20
1.432924
 30
0.0
  0
VERTEX
  8
DEFAULT
  5
DA7
 10
0.208202
 20
1.43027
 30
0.0
  0
VERTEX
  8
DEFAULT
  5
DA8
 10
0.202418
 20
1.427135
 30
0.0
  0
VERTEX
  8
DEFAULT
  5
DA9
 10
0.197135
 20
1.423518
 30
0.0
  0
VERTEX
  8
DEFAULT
  5
DAA
 10
0.192351
 20
1.419419
 30
0.0
  0
VERTEX
  8
DEFAULT
  5
DAB
 10
0.1881
 20
1.414946
 30
0.0
  0
VERTEX
  8
DEFAULT
  5
DAC
 10
0.184415
 20
1.410205
 30
0.0
  0
VERTEX
  8
DEFAULT
  5
DAD
 10
0.181298
 20
1.405195
 30
0.0
  0
VERTEX
  8
DEFAULT
  5
DAE
 10
0.178747
 20
1.399916
 30
0.0
  0
VERTEX
  8
DEFAULT
  5
DAF
 10
0.176764
 20
1.39437
 30
0.0
  0
VERTEX
  8
DEFAULT
  5
DB0
 10
0.175347
 20
1.388555
 30
0.0
  0
VERTEX
  8
DEFAULT
  5
DB1
 10
0.174496
 20
1.382471
 30
0.0
  0
VERTEX
  8
DEFAULT
  5
DB2
 10
0.174213
 20
1.376119
 30
0.0
  0
VERTEX
  8
DEFAULT
  5
DB3
 10
0.174851
 20
1.36682
 30
0.0
  0
VERTEX
  8
DEFAULT
  5
DB4
 10
0.176765
 20
1.358226
 30
0.0
  0
VERTEX
  8
DEFAULT
  5
DB5
 10
0.179956
 20
1.35034
 30
0.0
  0
VERTEX
  8
DEFAULT
  5
DB6
 10
0.184422
 20
1.34316
 30
0.0
  0
VERTEX
  8
DEFAULT
  5
DB7
 10
0.187165
 20
1.339835
 30
0.0
  0
VERTEX
  8
DEFAULT
  5
DB8
 10
0.190288
 20
1.336687
 30
0.0
  0
VERTEX
  8
DEFAULT
  5
DB9
 10
0.197675
 20
1.330922
 30
0.0
  0
VERTEX
  8
DEFAULT
  5
DBA
 10
0.206583
 20
1.325864
 30
0.0
  0
VERTEX
  8
DEFAULT
  5
DBB
 10
0.217013
 20
1.321513
 30
0.0
  0
SEQEND
  8
DEFAULT
  5
DBC
  0
POLYLINE
  8
DEFAULT
  5
DBD
 66
     1
 10
0.0
 20
0.0
 30
0.0
210
0.0
220
0.0
230
1.0
  0
VERTEX
  8
DEFAULT
  5
DBE
 10
0.273413
 20
1.436726
 30
0.0
  0
VERTEX
  8
DEFAULT
  5
DBF
 10
0.273413
 20
1.321126
 30
0.0
  0
VERTEX
  8
DEFAULT
  5
DC0
 10
0.285688
 20
1.322831
 30
0.0
  0
VERTEX
  8
DEFAULT
  5
DC1
 10
0.296326
 20
1.325609
 30
0.0
  0
VERTEX
  8
DEFAULT
  5
DC2
 10
0.305326
 20
1.329459
 30
0.0
  0
VERTEX
  8
DEFAULT
  5
DC3
 10
0.309211
 20
1.331786
 30
0.0
  0
VERTEX
  8
DEFAULT
  5
DC4
 10
0.312688
 20
1.334382
 30
0.0
  0
VERTEX
  8
DEFAULT
  5
DC5
 10
0.317452
 20
1.338728
 30
0.0
  0
VERTEX
  8
DEFAULT
  5
DC6
 10
0.32158
 20
1.343385
 30
0.0
  0
VERTEX
  8
DEFAULT
  5
DC7
 10
0.325074
 20
1.348352
 30
0.0
  0
VERTEX
  8
DEFAULT
  5
DC8
 10
0.327932
 20
1.35363
 30
0.0
  0
VERTEX
  8
DEFAULT
  5
DC9
 10
0.330155
 20
1.359219
 30
0.0
  0
VERTEX
  8
DEFAULT
  5
DCA
 10
0.331743
 20
1.365119
 30
0.0
  0
VERTEX
  8
DEFAULT
  5
DCB
 10
0.332695
 20
1.37133
 30
0.0
  0
VERTEX
  8
DEFAULT
  5
DCC
 10
0.333013
 20
1.377851
 30
0.0
  0
VERTEX
  8
DEFAULT
  5
DCD
 10
0.33276
 20
1.383774
 30
0.0
  0
VERTEX
  8
DEFAULT
  5
DCE
 10
0.331999
 20
1.389457
 30
0.0
  0
VERTEX
  8
DEFAULT
  5
DCF
 10
0.330732
 20
1.394899
 30
0.0
  0
VERTEX
  8
DEFAULT
  5
DD0
 10
0.328958
 20
1.4001
 30
0.0
  0
VERTEX
  8
DEFAULT
  5
DD1
 10
0.326678
 20
1.40506
 30
0.0
  0
VERTEX
  8
DEFAULT
  5
DD2
 10
0.32389
 20
1.40978
 30
0.0
  0
VERTEX
  8
DEFAULT
  5
DD3
 10
0.320596
 20
1.414259
 30
0.0
  0
VERTEX
  8
DEFAULT
  5
DD4
 10
0.316794
 20
1.418498
 30
0.0
  0
VERTEX
  8
DEFAULT
  5
DD5
 10
0.312569
 20
1.422386
 30
0.0
  0
VERTEX
  8
DEFAULT
  5
DD6
 10
0.308001
 20
1.425814
 30
0.0
  0
VERTEX
  8
DEFAULT
  5
DD7
 10
0.303091
 20
1.428782
 30
0.0
  0
VERTEX
  8
DEFAULT
  5
DD8
 10
0.29784
 20
1.431291
 30
0.0
  0
VERTEX
  8
DEFAULT
  5
DD9
 10
0.292246
 20
1.433339
 30
0.0
  0
VERTEX
  8
DEFAULT
  5
DDA
 10
0.28631
 20
1.434928
 30
0.0
  0
VERTEX
  8
DEFAULT
  5
DDB
 10
0.273413
 20
1.436726
 30
0.0
  0
SEQEND
  8
DEFAULT
  5
DDC
  0
POLYLINE
  8
DEFAULT
  5
DDD
 66
     1
 10
0.0
 20
0.0
 30
0.0
210
0.0
220
0.0
230
1.0
  0
VERTEX
  8
DEFAULT
  5
DDE
 10
0.181194
 20
1.164326
 30
0.0
  0
VERTEX
  8
DEFAULT
  5
DDF
 10
0.150138
 20
1.159526
 30
0.0
  0
VERTEX
  8
DEFAULT
  5
DE0
 10
0.147013
 20
1.186019
 30
0.0
  0
VERTEX
  8
DEFAULT
  5
DE1
 10
0.153082
 20
1.215632
 30
0.0
  0
VERTEX
  8
DEFAULT
  5
DE2
 10
0.169035
 20
1.230438
 30
0.0
  0
VERTEX
  8
DEFAULT
  5
DE3
 10
0.210626
 20
1.234726
 30
0.0
  0
VERTEX
  8
DEFAULT
  5
DE4
 10
0.330213
 20
1.234726
 30
0.0
  0
VERTEX
  8
DEFAULT
  5
DE5
 10
0.330213
 20
1.260726
 30
0.0
  0
VERTEX
  8
DEFAULT
  5
DE6
 10
0.357413
 20
1.260726
 30
0.0
  0
VERTEX
  8
DEFAULT
  5
DE7
 10
0.357413
 20
1.234726
 30
0.0
  0
VERTEX
  8
DEFAULT
  5
DE8
 10
0.408776
 20
1.234726
 30
0.0
  0
VERTEX
  8
DEFAULT
  5
DE9
 10
0.429869
 20
1.199526
 30
0.0
  0
VERTEX
  8
DEFAULT
  5
DEA
 10
0.357413
 20
1.199526
 30
0.0
  0
VERTEX
  8
DEFAULT
  5
DEB
 10
0.357413
 20
1.164326
 30
0.0
  0
VERTEX
  8
DEFAULT
  5
DEC
 10
0.330213
 20
1.164326
 30
0.0
  0
VERTEX
  8
DEFAULT
  5
DED
 10
0.330213
 20
1.199526
 30
0.0
  0
VERTEX
  8
DEFAULT
  5
DEE
 10
0.208601
 20
1.199526
 30
0.0
  0
VERTEX
  8
DEFAULT
  5
DEF
 10
0.189213
 20
1.197679
 30
0.0
  0
VERTEX
  8
DEFAULT
  5
DF0
 10
0.18236
 20
1.191651
 30
0.0
  0
VERTEX
  8
DEFAULT
  5
DF1
 10
0.179813
 20
1.179688
 30
0.0
  0
VERTEX
  8
DEFAULT
  5
DF2
 10
0.181194
 20
1.164326
 30
0.0
  0
SEQEND
  8
DEFAULT
  5
DF3
  0
ENDSEC
  0
EOF
